  0
SECTION
  2
HEADER
  9
$ACADVER
  1
AC1015
  9
$ACADMAINTVER
 70
    20
  9
$DWGCODEPAGE
  3
ANSI_1252
  9
$INSBASE
 10
0.0
 20
0.0
 30
0.0
  9
$EXTMIN
 10
355.4132093994567
 20
306.7127250048111
 30
-0.0015258207003583
  9
$EXTMAX
 10
358.4252938749564
 20
307.3223236893341
 30
0.0000000349246037
  9
$LIMMIN
 10
0.0
 20
0.0
  9
$LIMMAX
 10
420.0
 20
297.0
  9
$ORTHOMODE
 70
     0
  9
$REGENMODE
 70
     1
  9
$FILLMODE
 70
     1
  9
$QTEXTMODE
 70
     0
  9
$MIRRTEXT
 70
     1
  9
$LTSCALE
 40
1.0
  9
$ATTMODE
 70
     1
  9
$TEXTSIZE
 40
2.5
  9
$TRACEWID
 40
1.0
  9
$TEXTSTYLE
  7
Standard
  9
$CLAYER
  8
0
  9
$CELTYPE
  6
ByLayer
  9
$CECOLOR
 62
   256
  9
$CELTSCALE
 40
1.0
  9
$DISPSILH
 70
     0
  9
$DIMSCALE
 40
1.0
  9
$DIMASZ
 40
2.5
  9
$DIMEXO
 40
0.625
  9
$DIMDLI
 40
3.75
  9
$DIMRND
 40
0.0
  9
$DIMDLE
 40
0.0
  9
$DIMEXE
 40
1.25
  9
$DIMTP
 40
0.0
  9
$DIMTM
 40
0.0
  9
$DIMTXT
 40
2.5
  9
$DIMCEN
 40
2.5
  9
$DIMTSZ
 40
0.0
  9
$DIMTOL
 70
     0
  9
$DIMLIM
 70
     0
  9
$DIMTIH
 70
     0
  9
$DIMTOH
 70
     0
  9
$DIMSE1
 70
     0
  9
$DIMSE2
 70
     0
  9
$DIMTAD
 70
     1
  9
$DIMZIN
 70
     8
  9
$DIMBLK
  1

  9
$DIMASO
 70
     1
  9
$DIMSHO
 70
     1
  9
$DIMPOST
  1

  9
$DIMAPOST
  1

  9
$DIMALT
 70
     0
  9
$DIMALTD
 70
     3
  9
$DIMALTF
 40
0.03937007874016
  9
$DIMLFAC
 40
1.0
  9
$DIMTOFL
 70
     1
  9
$DIMTVP
 40
0.0
  9
$DIMTIX
 70
     0
  9
$DIMSOXD
 70
     0
  9
$DIMSAH
 70
     0
  9
$DIMBLK1
  1

  9
$DIMBLK2
  1

  9
$DIMSTYLE
  2
ISO-25
  9
$DIMCLRD
 70
     0
  9
$DIMCLRE
 70
     0
  9
$DIMCLRT
 70
     0
  9
$DIMTFAC
 40
1.0
  9
$DIMGAP
 40
0.625
  9
$DIMJUST
 70
     0
  9
$DIMSD1
 70
     0
  9
$DIMSD2
 70
     0
  9
$DIMTOLJ
 70
     0
  9
$DIMTZIN
 70
     8
  9
$DIMALTZ
 70
     0
  9
$DIMALTTZ
 70
     0
  9
$DIMUPT
 70
     0
  9
$DIMDEC
 70
     2
  9
$DIMTDEC
 70
     2
  9
$DIMALTU
 70
     2
  9
$DIMALTTD
 70
     3
  9
$DIMTXSTY
  7
Standard
  9
$DIMAUNIT
 70
     0
  9
$DIMADEC
 70
     0
  9
$DIMALTRND
 40
0.0
  9
$DIMAZIN
 70
     0
  9
$DIMDSEP
 70
    44
  9
$DIMATFIT
 70
     3
  9
$DIMFRAC
 70
     0
  9
$DIMLDRBLK
  1

  9
$DIMLUNIT
 70
     2
  9
$DIMLWD
 70
    -2
  9
$DIMLWE
 70
    -2
  9
$DIMTMOVE
 70
     0
  9
$LUNITS
 70
     2
  9
$LUPREC
 70
     4
  9
$SKETCHINC
 40
1.0
  9
$FILLETRAD
 40
10.0
  9
$AUNITS
 70
     0
  9
$AUPREC
 70
     0
  9
$MENU
  1
.
  9
$ELEVATION
 40
0.0
  9
$PELEVATION
 40
0.0
  9
$THICKNESS
 40
0.0
  9
$LIMCHECK
 70
     0
  9
$CHAMFERA
 40
10.0
  9
$CHAMFERB
 40
10.0
  9
$CHAMFERC
 40
20.0
  9
$CHAMFERD
 40
0.0
  9
$SKPOLY
 70
     0
  9
$TDCREATE
 40
2452860.472009549
  9
$TDUCREATE
 40
2452860.430342882
  9
$TDUPDATE
 40
2453895.748043797
  9
$TDUUPDATE
 40
2453895.706377130
  9
$TDINDWG
 40
0.0230067245
  9
$TDUSRTIMER
 40
0.0230067245
  9
$USRTIMER
 70
     1
  9
$ANGBASE
 50
0.0
  9
$ANGDIR
 70
     0
  9
$PDMODE
 70
     0
  9
$PDSIZE
 40
0.0
  9
$PLINEWID
 40
0.0
  9
$SPLFRAME
 70
     0
  9
$SPLINETYPE
 70
     6
  9
$SPLINESEGS
 70
     8
  9
$HANDSEED
  5
FF5
  9
$SURFTAB1
 70
     6
  9
$SURFTAB2
 70
     6
  9
$SURFTYPE
 70
     6
  9
$SURFU
 70
     6
  9
$SURFV
 70
     6
  9
$UCSBASE
  2

  9
$UCSNAME
  2

  9
$UCSORG
 10
0.0
 20
0.0
 30
0.0
  9
$UCSXDIR
 10
1.0
 20
0.0
 30
0.0
  9
$UCSYDIR
 10
0.0
 20
1.0
 30
0.0
  9
$UCSORTHOREF
  2

  9
$UCSORTHOVIEW
 70
     0
  9
$UCSORGTOP
 10
0.0
 20
0.0
 30
0.0
  9
$UCSORGBOTTOM
 10
0.0
 20
0.0
 30
0.0
  9
$UCSORGLEFT
 10
0.0
 20
0.0
 30
0.0
  9
$UCSORGRIGHT
 10
0.0
 20
0.0
 30
0.0
  9
$UCSORGFRONT
 10
0.0
 20
0.0
 30
0.0
  9
$UCSORGBACK
 10
0.0
 20
0.0
 30
0.0
  9
$PUCSBASE
  2

  9
$PUCSNAME
  2

  9
$PUCSORG
 10
0.0
 20
0.0
 30
0.0
  9
$PUCSXDIR
 10
1.0
 20
0.0
 30
0.0
  9
$PUCSYDIR
 10
0.0
 20
1.0
 30
0.0
  9
$PUCSORTHOREF
  2

  9
$PUCSORTHOVIEW
 70
     0
  9
$PUCSORGTOP
 10
0.0
 20
0.0
 30
0.0
  9
$PUCSORGBOTTOM
 10
0.0
 20
0.0
 30
0.0
  9
$PUCSORGLEFT
 10
0.0
 20
0.0
 30
0.0
  9
$PUCSORGRIGHT
 10
0.0
 20
0.0
 30
0.0
  9
$PUCSORGFRONT
 10
0.0
 20
0.0
 30
0.0
  9
$PUCSORGBACK
 10
0.0
 20
0.0
 30
0.0
  9
$USERI1
 70
     0
  9
$USERI2
 70
     0
  9
$USERI3
 70
     0
  9
$USERI4
 70
     0
  9
$USERI5
 70
     0
  9
$USERR1
 40
0.0
  9
$USERR2
 40
0.0
  9
$USERR3
 40
0.0
  9
$USERR4
 40
0.0
  9
$USERR5
 40
0.0
  9
$WORLDVIEW
 70
     1
  9
$SHADEDGE
 70
     3
  9
$SHADEDIF
 70
    70
  9
$TILEMODE
 70
     1
  9
$MAXACTVP
 70
    64
  9
$PINSBASE
 10
0.0
 20
0.0
 30
0.0
  9
$PLIMCHECK
 70
     0
  9
$PEXTMIN
 10
1.000000000000000E+20
 20
1.000000000000000E+20
 30
1.000000000000000E+20
  9
$PEXTMAX
 10
-1.000000000000000E+20
 20
-1.000000000000000E+20
 30
-1.000000000000000E+20
  9
$PLIMMIN
 10
0.0
 20
0.0
  9
$PLIMMAX
 10
420.0
 20
297.0
  9
$UNITMODE
 70
     0
  9
$VISRETAIN
 70
     1
  9
$PLINEGEN
 70
     0
  9
$PSLTSCALE
 70
     1
  9
$TREEDEPTH
 70
  3020
  9
$CMLSTYLE
  2
Standard
  9
$CMLJUST
 70
     0
  9
$CMLSCALE
 40
20.0
  9
$PROXYGRAPHICS
 70
     1
  9
$MEASUREMENT
 70
     1
  9
$CELWEIGHT
370
    -1
  9
$ENDCAPS
280
     0
  9
$JOINSTYLE
280
     0
  9
$LWDISPLAY
290
     0
  9
$INSUNITS
 70
     4
  9
$HYPERLINKBASE
  1

  9
$STYLESHEET
  1

  9
$XEDIT
290
     1
  9
$CEPSNTYPE
380
     0
  9
$PSTYLEMODE
290
     1
  9
$FINGERPRINTGUID
  2
{3BB28A1F-B3D3-4F9B-99E0-96013A35AE89}
  9
$VERSIONGUID
  2
{5A3747A4-02BA-46C3-96DE-9BD9AE1FEF66}
  9
$EXTNAMES
290
     1
  9
$PSVPSCALE
 40
0.0
  9
$OLESTARTUP
290
     0
  0
ENDSEC
  0
SECTION
  2
CLASSES
  0
CLASS
  1
ACDBDICTIONARYWDFLT
  2
AcDbDictionaryWithDefault
  3
ObjectDBX Classes
 90
        0
280
     0
281
     0
  0
CLASS
  1
ACDBPLACEHOLDER
  2
AcDbPlaceHolder
  3
ObjectDBX Classes
 90
        0
280
     0
281
     0
  0
CLASS
  1
LAYOUT
  2
AcDbLayout
  3
ObjectDBX Classes
 90
        0
280
     0
281
     0
  0
CLASS
  1
DIMASSOC
  2
AcDbDimAssoc
  3
"AcDbDimAssoc|Product Desc:     AcDim ARX App For Dimension|Company:          Autodesk, Inc.|WEB Address:      www.autodesk.com"
 90
    32768
280
     0
281
     0
  0
CLASS
  1
DICTIONARYVAR
  2
AcDbDictionaryVar
  3
ObjectDBX Classes
 90
        0
280
     0
281
     0
  0
CLASS
  1
TABLESTYLE
  2
AcDbTableStyle
  3
ObjectDBX Classes
 90
     2047
280
     0
281
     0
  0
ENDSEC
  0
SECTION
  2
TABLES
  0
TABLE
  2
VPORT
  5
8
330
0
100
AcDbSymbolTable
 70
     2
  0
VPORT
  5
FED
330
8
100
AcDbSymbolTableRecord
100
AcDbViewportTableRecord
  2
*Active
 70
     0
 10
0.0
 20
0.0
 11
1.0
 21
1.0
 12
356.9192516372066
 22
307.0175243470726
 13
0.0
 23
0.0
 14
10.0
 24
10.0
 15
10.0
 25
10.0
 16
0.0
 26
0.0
 36
1.0
 17
0.0
 27
0.0
 37
0.0
 40
1.896888754286755
 41
1.593939393939393
 42
50.0
 43
0.0
 44
0.0
 50
0.0
 51
0.0
 71
     0
 72
   100
 73
     1
 74
     3
 75
     0
 76
     0
 77
     0
 78
     0
281
     0
 65
     1
110
0.0
120
0.0
130
0.0
111
1.0
121
0.0
131
0.0
112
0.0
122
1.0
132
0.0
 79
     0
146
0.0
  0
ENDTAB
  0
TABLE
  2
LTYPE
  5
5
330
0
100
AcDbSymbolTable
 70
     5
  0
LTYPE
  5
14
330
5
100
AcDbSymbolTableRecord
100
AcDbLinetypeTableRecord
  2
ByBlock
 70
     0
  3

 72
    65
 73
     0
 40
0.0
  0
LTYPE
  5
15
330
5
100
AcDbSymbolTableRecord
100
AcDbLinetypeTableRecord
  2
ByLayer
 70
     0
  3

 72
    65
 73
     0
 40
0.0
  0
LTYPE
  5
16
330
5
100
AcDbSymbolTableRecord
100
AcDbLinetypeTableRecord
  2
Continuous
 70
     0
  3
Solid line
 72
    65
 73
     0
 40
0.0
  0
LTYPE
  5
267
330
5
100
AcDbSymbolTableRecord
100
AcDbLinetypeTableRecord
  2
HIDDEN
 70
     0
  3
Hidden __ __ __ __ __ __ __ __ __ __ __ __ __ _
 72
    65
 73
     2
 40
9.524999999999998
 49
6.349999999999999
 74
     0
 49
-3.174999999999999
 74
     0
  0
LTYPE
  5
268
330
5
100
AcDbSymbolTableRecord
100
AcDbLinetypeTableRecord
  2
CENTER
 70
     0
  3
Center ____ _ ____ _ ____ _ ____ _ ____ _ ____
 72
    65
 73
     4
 40
10.16
 49
6.349999999999999
 74
     0
 49
-1.27
 74
     0
 49
1.27
 74
     0
 49
-1.27
 74
     0
  0
LTYPE
  5
269
330
5
100
AcDbSymbolTableRecord
100
AcDbLinetypeTableRecord
  2
ACISOWELD
 70
     0
  3
_ _ _ _ _
 72
    65
 73
     2
 40
2.0
 49
2.0
 74
     0
 49
-1.0
 74
     0
  0
LTYPE
  5
26A
330
5
100
AcDbSymbolTableRecord
100
AcDbLinetypeTableRecord
  2
ACISOTGL
 70
     0
  3
_ _ _ _ _
 72
    65
 73
     2
 40
3.0
 49
2.0
 74
     0
 49
-1.0
 74
     0
  0
ENDTAB
  0
TABLE
  2
LAYER
  5
2
330
0
100
AcDbSymbolTable
 70
     9
  0
LAYER
  5
10
330
2
100
AcDbSymbolTableRecord
100
AcDbLayerTableRecord
  2
0
 70
     0
 62
     7
  6
Continuous
370
    -3
390
F
  0
LAYER
  5
26B
330
2
100
AcDbSymbolTableRecord
100
AcDbLayerTableRecord
  2
3
 70
     0
 62
     3
  6
Continuous
370
    -3
390
F
  0
LAYER
  5
26C
330
2
100
AcDbSymbolTableRecord
100
AcDbLayerTableRecord
  2
Defpoints
 70
     0
 62
     7
  6
Continuous
290
     0
370
    -3
390
F
  0
LAYER
  5
26D
330
2
100
AcDbSymbolTableRecord
100
AcDbLayerTableRecord
  2
9
 70
     0
 62
     9
  6
Continuous
370
    -3
390
F
  0
LAYER
  5
26E
330
2
100
AcDbSymbolTableRecord
100
AcDbLayerTableRecord
  2
hatch
 70
     0
 62
     9
  6
Continuous
370
    -3
390
F
  0
LAYER
  5
26F
330
2
100
AcDbSymbolTableRecord
100
AcDbLayerTableRecord
  2
INDUSA
 70
     0
 62
     1
  6
Continuous
370
    -3
390
F
  0
LAYER
  5
270
330
2
100
AcDbSymbolTableRecord
100
AcDbLayerTableRecord
  2
COTAS
 70
     0
 62
     1
  6
Continuous
370
    -3
390
F
  0
LAYER
  5
271
330
2
100
AcDbSymbolTableRecord
100
AcDbLayerTableRecord
  2
INDUSA HID
 70
     0
 62
     9
  6
HIDDEN
370
    -3
390
F
  0
LAYER
  5
272
330
2
100
AcDbSymbolTableRecord
100
AcDbLayerTableRecord
  2
INDUSA CEN
 70
     0
 62
     9
  6
CENTER
370
    -3
390
F
  0
ENDTAB
  0
TABLE
  2
STYLE
  5
3
330
0
100
AcDbSymbolTable
 70
     2
  0
STYLE
  5
11
330
3
100
AcDbSymbolTableRecord
100
AcDbTextStyleTableRecord
  2
Standard
 70
     0
 40
0.0
 41
1.0
 50
0.0
 71
     0
 42
2.5
  3
txt
  4

  0
STYLE
  5
273
330
3
100
AcDbSymbolTableRecord
100
AcDbTextStyleTableRecord
  2
SANINDUSA
 70
     0
 40
0.0
 41
1.0
 50
0.0
 71
     0
 42
2.5
  3
simplex.shx
  4

  0
ENDTAB
  0
TABLE
  2
VIEW
  5
6
330
0
100
AcDbSymbolTable
 70
     0
  0
ENDTAB
  0
TABLE
  2
UCS
  5
7
330
0
100
AcDbSymbolTable
 70
     0
  0
ENDTAB
  0
TABLE
  2
APPID
  5
9
330
0
100
AcDbSymbolTable
 70
     2
  0
APPID
  5
12
330
9
100
AcDbSymbolTableRecord
100
AcDbRegAppTableRecord
  2
ACAD
 70
     0
  0
APPID
  5
FE9
330
9
100
AcDbSymbolTableRecord
100
AcDbRegAppTableRecord
  2
DCO15
 70
     0
  0
ENDTAB
  0
TABLE
  2
DIMSTYLE
  5
A
330
0
100
AcDbSymbolTable
 70
     2
100
AcDbDimStyleTable
 71
     1
340
27
  0
DIMSTYLE
105
27
330
A
100
AcDbSymbolTableRecord
100
AcDbDimStyleTableRecord
  2
ISO-25
 70
     0
 41
2.5
 42
0.625
 43
3.75
 44
1.25
 73
     0
 74
     0
 77
     1
 78
     8
140
2.5
141
2.5
143
0.03937007874016
147
0.625
171
     3
172
     1
271
     2
272
     2
274
     3
278
    44
283
     0
284
     8
340
11
  0
DIMSTYLE
105
274
330
A
100
AcDbSymbolTableRecord
100
AcDbDimStyleTableRecord
  2
SANINDUSA
 70
     0
 41
3.0
 42
1.0
 43
1.0
 44
1.0
 73
     0
 74
     0
 77
     1
 78
     8
140
2.0
141
0.0
143
0.03937007874016
147
1.0
171
     3
172
     1
176
     1
177
     1
178
     1
179
     1
271
     1
272
     1
274
     3
278
    44
283
     0
284
     8
340
273
371
    -1
372
    -1
  0
ENDTAB
  0
TABLE
  2
BLOCK_RECORD
  5
1
330
0
100
AcDbSymbolTable
 70
    96
  0
BLOCK_RECORD
  5
1F
330
1
100
AcDbSymbolTableRecord
100
AcDbBlockTableRecord
  2
*Model_Space
340
22
  0
BLOCK_RECORD
  5
1B
330
1
100
AcDbSymbolTableRecord
100
AcDbBlockTableRecord
  2
*Paper_Space
340
1E
  0
BLOCK_RECORD
  5
23
330
1
100
AcDbSymbolTableRecord
100
AcDbBlockTableRecord
  2
*Paper_Space0
340
26
  0
BLOCK_RECORD
  5
2B
330
1
100
AcDbSymbolTableRecord
100
AcDbBlockTableRecord
  2
_DotSmall
340
0
102
{BLKREFS
331
187
331
179
331
DD6
331
DE3
102
}
  0
ENDTAB
  0
ENDSEC
  0
SECTION
  2
BLOCKS
  0
BLOCK
  5
20
330
1F
100
AcDbEntity
  8
0
100
AcDbBlockBegin
  2
*Model_Space
 70
     0
 10
0.0
 20
0.0
 30
0.0
  3
*Model_Space
  1

  0
ENDBLK
  5
21
330
1F
100
AcDbEntity
  8
0
100
AcDbBlockEnd
  0
BLOCK
  5
1C
330
1B
100
AcDbEntity
 67
     1
  8
0
100
AcDbBlockBegin
  2
*Paper_Space
 70
     0
 10
0.0
 20
0.0
 30
0.0
  3
*Paper_Space
  1

  0
ENDBLK
  5
1D
330
1B
100
AcDbEntity
 67
     1
  8
0
100
AcDbBlockEnd
  0
BLOCK
  5
24
330
23
100
AcDbEntity
 67
     1
  8
0
100
AcDbBlockBegin
  2
*Paper_Space0
 70
     0
 10
0.0
 20
0.0
 30
0.0
  3
*Paper_Space0
  1

  0
ENDBLK
  5
25
330
23
100
AcDbEntity
 67
     1
  8
0
100
AcDbBlockEnd
  0
BLOCK
  5
2D
330
2B
100
AcDbEntity
  8
0
100
AcDbBlockBegin
  2
_DotSmall
 70
     0
 10
0.0
 20
0.0
 30
0.0
  3
_DotSmall
  1

  0
LWPOLYLINE
  5
2C
330
2B
100
AcDbEntity
  8
0
  6
ByBlock
 62
     0
100
AcDbPolyline
 90
        2
 70
     1
 43
0.5
 10
-0.0625
 20
0.0
 42
1.0
 10
0.0625
 20
0.0
 42
1.0
  0
ENDBLK
  5
2E
330
2B
100
AcDbEntity
  8
0
100
AcDbBlockEnd
  0
ENDSEC
  0
SECTION
  2
ENTITIES
  0
LWPOLYLINE
  5
845
330
1F
100
AcDbEntity
  8
3
  6
Continuous
100
AcDbPolyline
 90
        5
 70
   128
 43
0.0
 10
355.7520239282203
 20
306.7928322548454
 10
355.7535388878026
 20
306.7958277358388
 10
355.7545563390068
 20
306.799136376444
 10
355.7549627409783
 20
306.8017902098737
 10
355.7550416130383
 20
306.8045066203052
  0
LWPOLYLINE
  5
847
330
1F
100
AcDbEntity
  8
3
  6
Continuous
100
AcDbPolyline
 90
        6
 70
   128
 43
0.0
 10
355.6365485414414
 20
306.7752571837533
 10
355.6459882098916
 20
306.7753279569827
 10
355.6712326012259
 20
306.7762135551029
 10
355.6964211476497
 20
306.7781110264724
 10
355.721676463444
 20
306.7810408989384
 10
355.7410904372659
 20
306.7840929281065
  0
LWPOLYLINE
  5
849
330
1F
100
AcDbEntity
  8
3
  6
Continuous
100
AcDbPolyline
 90
        5
 70
   128
 43
0.0
 10
355.7410904372659
 20
306.7840929281065
 10
355.7450190719182
 20
306.7860076068114
 10
355.7476314288826
 20
306.7878243814029
 10
355.7500048705195
 20
306.7901118371323
 10
355.7520239282203
 20
306.7928322548454
  0
LINE
  5
852
330
1F
100
AcDbEntity
  8
3
100
AcDbLine
 10
355.7550416130383
 20
307.0848846142973
 30
0.0
 11
355.7550416130383
 21
306.8045066203053
 31
0.0
  0
LINE
  5
856
330
1F
100
AcDbEntity
  8
3
100
AcDbLine
 10
355.5179671014703
 20
307.0877325437472
 30
0.0
 11
355.5179671014703
 21
306.8045066203053
 31
0.0
  0
LWPOLYLINE
  5
859
330
1F
100
AcDbEntity
  8
3
  6
Continuous
100
AcDbPolyline
 90
       11
 70
   128
 43
0.0
 10
355.4954444599843
 20
306.7348932008669
 10
355.5002826680885
 20
306.733923673315
 10
355.5151571746586
 20
306.7312526752017
 10
355.5301098071497
 20
306.7288763280073
 10
355.5451063072082
 20
306.72679838112
 10
355.5601311359816
 20
306.7250182536718
 10
355.5751709356933
 20
306.7235358994342
 10
355.5902419269174
 20
306.7223508219533
 10
355.6053454605447
 20
306.7214648975088
 10
355.6204708077086
 20
306.7208809148934
 10
355.6341630633428
 20
306.7206274498968
  0
ARC
  5
86D
330
1F
100
AcDbEntity
  8
3
100
AcDbCircle
 10
355.7691586531654
 20
306.7546311743821
 30
0.0
 40
0.0225041868338713
100
AcDbArc
 50
337.4618892905973
 51
352.3852169124024
  0
ARC
  5
870
330
1F
100
AcDbEntity
  8
3
100
AcDbCircle
 10
355.504572099131
 20
306.7547796578934
 30
0.0
 40
0.0233281610552537
100
AcDbArc
 50
188.3195697450296
 51
202.121698419597
  0
LINE
  5
874
330
1F
100
AcDbEntity
  8
3
100
AcDbLine
 10
355.8385833660752
 20
307.1863349386885
 30
0.0
 11
355.842020187849
 21
307.1853007006703
 31
0.0
  0
LWPOLYLINE
  5
878
330
1F
100
AcDbEntity
  8
3
  6
Continuous
100
AcDbPolyline
 90
        3
 70
   128
 43
0.0
 10
355.486385855571
 20
306.7699783572026
 10
355.4876153583293
 20
306.7607080143142
 10
355.4889187123785
 20
306.7514462956935
  0
LINE
  5
879
330
1F
100
AcDbEntity
  8
3
  6
Continuous
100
AcDbLine
 10
355.5003629083178
 20
306.7391674649426
 30
0.0
 11
355.5028046141761
 21
306.7386765854799
 31
0.0
  0
LWPOLYLINE
  5
87D
330
1F
100
AcDbEntity
  8
3
  6
Continuous
100
AcDbPolyline
 90
        5
 70
   128
 43
0.0
 10
355.5209847862883
 20
306.7928322548454
 10
355.5194698267061
 20
306.7958277358388
 10
355.5184523755018
 20
306.799136376444
 10
355.5180459735304
 20
306.8017902098737
 10
355.5179671014704
 20
306.8045066203052
  0
LWPOLYLINE
  5
882
330
1F
100
AcDbEntity
  8
3
  6
Continuous
100
AcDbPolyline
 90
        5
 70
   128
 43
0.0
 10
355.5319182772428
 20
306.7840929281065
 10
355.5279896425905
 20
306.7860076068114
 10
355.5253772856261
 20
306.7878243814029
 10
355.5230038439892
 20
306.7901118371323
 10
355.5209847862883
 20
306.7928322548454
  0
LWPOLYLINE
  5
885
330
1F
100
AcDbEntity
  8
3
  6
Continuous
100
AcDbPolyline
 90
       10
 70
   128
 43
0.0
 10
355.4829612153414
 20
306.7459948528269
 10
355.4839643195097
 20
306.743798692966
 10
355.4850190936778
 20
306.7420108039343
 10
355.486234869345
 20
306.7403807428955
 10
355.4876073468014
 20
306.738923647203
 10
355.4891488234737
 20
306.7376372033335
 10
355.4908529686179
 20
306.7365426398855
 10
355.4927076299041
 20
306.7356639573845
 10
355.4946834612023
 20
306.7350294247515
 10
355.4954460690739
 20
306.7348929128291
  0
LWPOLYLINE
  5
887
330
1F
100
AcDbEntity
  8
3
  6
Continuous
100
AcDbPolyline
 90
        9
 70
   128
 43
0.0
 10
355.4889187123785
 20
306.7514462956935
 10
355.4890438697174
 20
306.7508005866408
 10
355.4897390077638
 20
306.7484963203232
 10
355.4907890680872
 20
306.7463218623183
 10
355.492202190132
 20
306.7442997257153
 10
355.4939185688774
 20
306.7425269932144
 10
355.4959736990034
 20
306.741007289922
 10
355.4982449631207
 20
306.739851507416
 10
355.5003629083178
 20
306.7391674649426
  0
LINE
  5
88A
330
1F
100
AcDbEntity
  8
3
  6
Continuous
100
AcDbLine
 10
355.4559483191437
 20
307.0858554827767
 30
0.0
 11
355.4561250637576
 21
307.085944059173
 31
0.0
  0
LWPOLYLINE
  5
88C
330
1F
100
AcDbEntity
  8
3
  6
Continuous
100
AcDbPolyline
 90
        5
 70
   128
 43
0.0
 10
355.4465919776589
 20
307.0811091787131
 10
355.446443710105
 20
307.0803883000753
 10
355.4463686668654
 20
307.0800290528926
 10
355.4462926358486
 20
307.0796709976107
 10
355.446289369968
 20
307.0796557721047
  0
LWPOLYLINE
  5
88D
330
1F
100
AcDbEntity
  8
3
  6
Continuous
100
AcDbPolyline
 90
        6
 70
   128
 43
0.0
 10
355.4471687068708
 20
307.080649175021
 10
355.4489774052637
 20
307.0820891538329
 10
355.4518326151778
 20
307.0837958368478
 10
355.4551710923945
 20
307.0854916115369
 10
355.4556716670924
 20
307.0857271568322
 10
355.4559483191438
 20
307.0858554827767
  0
LWPOLYLINE
  5
892
330
1F
100
AcDbEntity
  8
3
  6
Continuous
100
AcDbPolyline
 90
        6
 70
   128
 43
0.0
 10
355.446289369968
 20
307.0796557721047
 10
355.4462977434749
 20
307.0796659126426
 10
355.4464996839345
 20
307.0799056841551
 10
355.4467128057948
 20
307.0801499939352
 10
355.4469355407477
 20
307.0803973940867
 10
355.4471687068708
 20
307.080649175021
  0
LWPOLYLINE
  5
897
330
1F
100
AcDbEntity
  8
3
  6
Continuous
100
AcDbPolyline
 90
        9
 70
   128
 43
0.0
 10
355.5179671014704
 20
307.0877325437471
 10
355.5180832931092
 20
307.0893437535658
 10
355.5183356935178
 20
307.0909495935687
 10
355.5185164817713
 20
307.0917599548199
 10
355.5187321422458
 20
307.0925626294569
 10
355.5189833624179
 20
307.0933591638557
 10
355.5192689479818
 20
307.094144964672
 10
355.5195609014374
 20
307.09485555996
 10
355.5198809172929
 20
307.0955547620394
  0
LINE
  5
89A
330
1F
100
AcDbEntity
  8
3
  6
Continuous
100
AcDbLine
 10
355.5059664365483
 20
307.1025379999674
 30
0.0
 11
355.5111560071237
 21
307.1037546494517
 31
0.0
  0
LWPOLYLINE
  5
89C
330
1F
100
AcDbEntity
  8
3
  6
Continuous
100
AcDbPolyline
 90
        8
 70
   128
 43
0.0
 10
355.5111560071237
 20
307.1037546494517
 10
355.5124088346101
 20
307.1041697367605
 10
355.5135614807986
 20
307.1048126060698
 10
355.5145729709006
 20
307.1056604043702
 10
355.5154073480081
 20
307.1066829937438
 10
355.5160349513058
 20
307.1078440227208
 10
355.5164334704676
 20
307.1091022185173
 10
355.516588738754
 20
307.1104128542195
  0
LWPOLYLINE
  5
8A4
330
1F
100
AcDbEntity
  8
3
  6
Continuous
100
AcDbPolyline
 90
        5
 70
   128
 43
0.0
 10
355.5258584124513
 20
307.1028294559734
 10
355.526774943942
 20
307.103484403207
 10
355.5277301733824
 20
307.1040907361879
 10
355.5287888529625
 20
307.1046812099016
 10
355.5298855168521
 20
307.1052108971961
  0
LWPOLYLINE
  5
8A5
330
1F
100
AcDbEntity
  8
3
  6
Continuous
100
AcDbPolyline
 90
        3
 70
   128
 43
0.0
 10
355.5254191029834
 20
307.1024891433036
 10
355.5256373935224
 20
307.1026602147559
 10
355.5258584124513
 20
307.1028294559734
  0
LWPOLYLINE
  5
8A8
330
1F
100
AcDbEntity
  8
3
  6
Continuous
100
AcDbPolyline
 90
        3
 70
   128
 43
0.0
 10
355.5298855168521
 20
307.1052108971961
 10
355.5321071699014
 20
307.1060495457101
 10
355.5344460635557
 20
307.1066251762927
  0
LWPOLYLINE
  5
8AE
330
1F
100
AcDbEntity
  8
3
  6
Continuous
100
AcDbPolyline
 90
        7
 70
   128
 43
0.0
 10
355.5198809172929
 20
307.0955547620394
 10
355.5208595175141
 20
307.0973715462995
 10
355.5214208175096
 20
307.0982509573116
 10
355.5220165238889
 20
307.0990794737904
 10
355.523415447796
 20
307.1006944393443
 10
355.5243828373406
 20
307.101617754185
 10
355.5254191029834
 20
307.1024891433036
  0
LWPOLYLINE
  5
8B0
330
1F
100
AcDbEntity
  8
3
  6
Continuous
100
AcDbPolyline
 90
        9
 70
   128
 43
0.0
 10
355.4561250637576
 20
307.085944059173
 10
355.4603091781264
 20
307.087850753945
 10
355.4645521212748
 20
307.0896190926883
 10
355.4688353620837
 20
307.0912855000728
 10
355.4790362519773
 20
307.0948907102175
 10
355.4819758979087
 20
307.0958490657879
 10
355.4908554056891
 20
307.0985512886508
 10
355.4983863530278
 20
307.1006310853591
 10
355.5059664365483
 20
307.1025379999673
  0
LWPOLYLINE
  5
8B4
330
1F
100
AcDbEntity
  8
3
  6
Continuous
100
AcDbPolyline
 90
        6
 70
   128
 43
0.0
 10
355.446289369968
 20
307.0796557721047
 10
355.4591127337058
 20
306.9810033696432
 10
355.4659564113308
 20
306.9282512901536
 10
355.4727831947213
 20
306.8754963270775
 10
355.4795926549474
 20
306.8227385173452
 10
355.486385855571
 20
306.7699783572026
  0
LWPOLYLINE
  5
8B9
330
1F
100
AcDbEntity
  8
3
  6
Continuous
100
AcDbPolyline
 90
        3
 70
   128
 43
0.0
 10
355.6341642996481
 20
306.7206184967167
 10
355.6357702249572
 20
306.7206043673024
 10
355.6387553026091
 20
306.7206306307279
  0
LINE
  5
8BD
330
1F
100
AcDbEntity
  8
3
  6
Continuous
100
AcDbLine
 10
355.7725574378167
 20
306.7391674649426
 30
0.0
 11
355.7701157319584
 21
306.7386765854799
 31
0.0
  0
LWPOLYLINE
  5
8C3
330
1F
100
AcDbEntity
  8
3
  6
Continuous
100
AcDbPolyline
 90
       12
 70
   128
 43
0.0
 10
355.6387563479781
 20
306.7206253470812
 10
355.6400039398535
 20
306.7206285004987
 10
355.6550432451174
 20
306.7209594642164
 10
355.6701468685782
 20
306.7215944070333
 10
355.6852568789484
 20
306.7225322570388
 10
355.700342857198
 20
306.7237701461544
 10
355.7153938237698
 20
306.7253054014098
 10
355.7303955612277
 20
306.7271345122608
 10
355.7453584835318
 20
306.7292596268174
 10
355.7602938119412
 20
306.7316853217542
 10
355.7751865687933
 20
306.7344125372316
 10
355.778063991391
 20
306.7349997445461
  0
LWPOLYLINE
  5
8C5
330
1F
100
AcDbEntity
  8
3
  6
Continuous
100
AcDbPolyline
 90
        6
 70
   128
 43
0.0
 10
355.7701157319584
 20
306.7386765854799
 10
355.7436264821629
 20
306.7340075440111
 10
355.7169761608923
 20
306.7303687700092
 10
355.6902048237342
 20
306.7277657325685
 10
355.6633527081633
 20
306.726202344065
 10
355.6364601730646
 20
306.7256809542765
  0
LWPOLYLINE
  5
8CA
330
1F
100
AcDbEntity
  8
3
  6
Continuous
100
AcDbPolyline
 90
        3
 70
   128
 43
0.0
 10
355.7865344905635
 20
306.7699783572026
 10
355.7853049878052
 20
306.7607080143142
 10
355.784001633756
 20
306.7514462956935
  0
LWPOLYLINE
  5
8CB
330
1F
100
AcDbEntity
  8
3
  6
Continuous
100
AcDbPolyline
 90
       11
 70
   128
 43
0.0
 10
355.778063991391
 20
306.7349997445461
 10
355.7782605000073
 20
306.7350353282042
 10
355.7801827962045
 20
306.7356521410292
 10
355.7819485409985
 20
306.7364772271186
 10
355.7835332882717
 20
306.7374653513825
 10
355.7849688440805
 20
306.7386079746971
 10
355.7862558694211
 20
306.7398871388619
 10
355.787406869957
 20
306.7413015325045
 10
355.7884328561625
 20
306.7428592700462
 10
355.7893396957187
 20
306.7445672139676
 10
355.7899440778566
 20
306.7460053674366
  0
LWPOLYLINE
  5
8CE
330
1F
100
AcDbEntity
  8
3
  6
Continuous
100
AcDbPolyline
 90
        9
 70
   128
 43
0.0
 10
355.784001633756
 20
306.7514462956935
 10
355.7838764764172
 20
306.7508005866408
 10
355.7831813383707
 20
306.7484963203232
 10
355.7821312780474
 20
306.7463218623183
 10
355.7807181560025
 20
306.7442997257153
 10
355.7790017772571
 20
306.7425269932144
 10
355.7769466471311
 20
306.741007289922
 10
355.7746753830138
 20
306.739851507416
 10
355.7725574378167
 20
306.7391674649426
  0
LWPOLYLINE
  5
8D6
330
1F
100
AcDbEntity
  8
3
  6
Continuous
100
AcDbPolyline
 90
       21
 70
   128
 43
0.0
 10
355.6364601730672
 20
307.1147648350049
 10
355.6380390466446
 20
307.114755784805
 10
355.6403889612129
 20
307.1147081176735
 10
355.6426931984324
 20
307.1146186761855
 10
355.6447593310822
 20
307.1144966832862
 10
355.6466463419876
 20
307.114341086255
 10
355.6482050572717
 20
307.114166505416
 10
355.6494706687104
 20
307.1139713881948
 10
355.6503562382092
 20
307.113769117516
 10
355.6508491800014
 20
307.1135607573622
 10
355.6509096630503
 20
307.1133694172396
 10
355.6505543814282
 20
307.1131852148303
 10
355.6498126421324
 20
307.1130228697367
 10
355.6486622608861
 20
307.1128761257722
 10
355.6472032331141
 20
307.1127554688577
 10
355.6453903877223
 20
307.1126544391102
 10
355.643382203072
 20
307.1125791414937
 10
355.6411154758778
 20
307.112524596444
 10
355.6388513319153
 20
307.1124940993624
 10
355.6364602330672
 20
307.1124836013075
 10
355.6364601730672
 20
307.1124836013075
  0
LWPOLYLINE
  5
8D8
330
1F
100
AcDbEntity
  8
3
  6
Continuous
100
AcDbPolyline
 90
       21
 70
   128
 43
0.0
 10
355.6364601730672
 20
307.1147648350049
 10
355.63488129949
 20
307.114755784805
 10
355.6324981856601
 20
307.1147069543321
 10
355.630227147702
 20
307.1146186761855
 10
355.628133599934
 20
307.114494582013
 10
355.626274004147
 20
307.114341086255
 10
355.6246962981811
 20
307.1141638263798
 10
355.6234496774241
 20
307.1139713881948
 10
355.622555273484
 20
307.1137660831376
 10
355.622071166133
 20
307.1135607573622
 10
355.6220141930355
 20
307.1133668087875
 10
355.6223659647063
 20
307.1131852148303
 10
355.6231226547233
 20
307.1130207426896
 10
355.6242580852484
 20
307.1128761257722
 10
355.6257418279857
 20
307.1127539562792
 10
355.6275299584123
 20
307.1126544391102
 10
355.6295697418952
 20
307.1125782662045
 10
355.6318048702568
 20
307.112524596444
 10
355.6341009611074
 20
307.1124938573646
 10
355.6364601130673
 20
307.1124836013075
 10
355.6364601730672
 20
307.1124836013075
  0
LWPOLYLINE
  5
8DF
330
1F
100
AcDbEntity
  8
3
  6
Continuous
100
AcDbPolyline
 90
       20
 70
   128
 43
0.0
 10
355.6364601730672
 20
307.0239445270111
 10
355.6405048457875
 20
307.0242878023311
 10
355.644409860471
 20
307.0253019493923
 10
355.648090715185
 20
307.0269509448954
 10
355.6514426378865
 20
307.0291985764588
 10
355.6543726100942
 20
307.0319712806361
 10
355.6567961475278
 20
307.0352034937568
 10
355.6586467365582
 20
307.0387926747145
 10
355.6598663633341
 20
307.0426496941318
 10
355.6604255126118
 20
307.0466551471164
 10
355.6604598329282
 20
307.0478167515911
 10
355.6601170779778
 20
307.0519719971995
 10
355.6590653557606
 20
307.0560071392057
 10
355.6573845264507
 20
307.0596941782502
 10
355.6551102802223
 20
307.063049940051
 10
355.6523035107736
 20
307.0659687236521
 10
355.6490471594237
 20
307.0683790021563
 10
355.6454364205483
 20
307.0702000911388
 10
355.6415713152845
 20
307.0713939667749
 10
355.6364601730672
 20
307.0719445270111
  0
LWPOLYLINE
  5
8E0
330
1F
100
AcDbEntity
  8
3
  6
Continuous
100
AcDbPolyline
 90
       20
 70
   128
 43
0.0
 10
355.6364601730672
 20
307.0239445270111
 10
355.632415500347
 20
307.0242878023311
 10
355.6285104856635
 20
307.0253019493923
 10
355.6248296309495
 20
307.0269509448954
 10
355.621477708248
 20
307.0291985764588
 10
355.6185477360403
 20
307.0319712806361
 10
355.6161241986067
 20
307.0352034937568
 10
355.6142736095762
 20
307.0387926747145
 10
355.6130539828004
 20
307.0426496941318
 10
355.6124948335226
 20
307.0466551471164
 10
355.6124605132063
 20
307.0478167515911
 10
355.6128032681566
 20
307.0519719971995
 10
355.6138549903739
 20
307.0560071392057
 10
355.6155358196837
 20
307.0596941782502
 10
355.6178100659122
 20
307.063049940051
 10
355.6206168353609
 20
307.0659687236521
 10
355.6238731867108
 20
307.0683790021563
 10
355.6274839255862
 20
307.0702000911388
 10
355.63134903085
 20
307.0713939667749
 10
355.6364601730672
 20
307.0719445270111
  0
LINE
  5
8E2
330
1F
100
AcDbEntity
  8
3
  6
Continuous
100
AcDbLine
 10
355.7550416130383
 20
307.0848846142973
 30
0.0
 11
355.7549532446641
 21
307.0877325437472
 31
0.0
  0
LWPOLYLINE
  5
8E4
330
1F
100
AcDbEntity
  8
3
  6
Continuous
100
AcDbPolyline
 90
        4
 70
   128
 43
0.0
 10
355.7549532446641
 20
307.0877325437471
 10
355.7545846526167
 20
307.0909495935687
 10
355.7536513981527
 20
307.094144964672
 10
355.7530394288416
 20
307.0955547620394
  0
LWPOLYLINE
  5
8E7
330
1F
100
AcDbEntity
  8
3
  6
Continuous
100
AcDbPolyline
 90
        3
 70
   128
 43
0.0
 10
355.7470619336831
 20
307.1028294559734
 10
355.745190172752
 20
307.1040907361879
 10
355.7430348292824
 20
307.1052108971961
  0
LINE
  5
8E8
330
1F
100
AcDbEntity
  8
3
  6
Continuous
100
AcDbLine
 10
355.7475012431511
 20
307.1024891433036
 30
0.0
 11
355.7470619336831
 21
307.1028294559735
 31
0.0
  0
LINE
  5
8EB
330
1F
100
AcDbEntity
  8
3
  6
Continuous
100
AcDbLine
 10
355.7430348292824
 20
307.1052108971961
 30
0.0
 11
355.7384742825788
 21
307.1066251762927
 31
0.0
  0
LINE
  5
8F1
330
1F
100
AcDbEntity
  8
3
  6
Continuous
100
AcDbLine
 10
355.7669539095862
 20
307.1025379999674
 30
0.0
 11
355.7617643390108
 21
307.1037546494517
 31
0.0
  0
LWPOLYLINE
  5
8F3
330
1F
100
AcDbEntity
  8
3
  6
Continuous
100
AcDbPolyline
 90
        8
 70
   128
 43
0.0
 10
355.7617643390108
 20
307.1037546494517
 10
355.7605115115244
 20
307.1041697367605
 10
355.7593588653359
 20
307.1048126060698
 10
355.7583473752339
 20
307.1056604043702
 10
355.7575129981264
 20
307.1066829937438
 10
355.7568853948287
 20
307.1078440227208
 10
355.7564868756668
 20
307.1091022185173
 10
355.7563316073805
 20
307.1104128542195
  0
LWPOLYLINE
  5
8FF
330
1F
100
AcDbEntity
  8
3
  6
Continuous
100
AcDbPolyline
 90
        4
 70
   128
 43
0.0
 10
355.7530394288416
 20
307.0955547620394
 10
355.751499528625
 20
307.0982509573116
 10
355.7495048983385
 20
307.1006944393443
 10
355.7475012431511
 20
307.1024891433036
  0
LWPOLYLINE
  5
903
330
1F
100
AcDbEntity
  8
3
  6
Continuous
100
AcDbPolyline
 90
        8
 70
   128
 43
0.0
 10
355.7384742825789
 20
307.1066251762927
 10
355.7235415817079
 20
307.109195543251
 10
355.7085334132527
 20
307.1113605172345
 10
355.6934830631294
 20
307.1131153000708
 10
355.6783793962974
 20
307.1144611935933
 10
355.6632559064208
 20
307.1153952166978
 10
355.6481014073074
 20
307.1159180638947
 10
355.6364601730672
 20
307.1160396347096
  0
LWPOLYLINE
  5
909
330
1F
100
AcDbEntity
  8
3
  6
Continuous
100
AcDbPolyline
 90
        5
 70
   128
 43
0.0
 10
355.8263283684756
 20
307.0811091787131
 10
355.8264766360295
 20
307.0803883000753
 10
355.8265516792691
 20
307.0800290528926
 10
355.8266277102859
 20
307.0796709976107
 10
355.8266309761665
 20
307.0796557721047
  0
LINE
  5
90A
330
1F
100
AcDbEntity
  8
3
  6
Continuous
100
AcDbLine
 10
355.8169720269907
 20
307.0858554827767
 30
0.0
 11
355.8167952823768
 21
307.085944059173
 31
0.0
  0
LWPOLYLINE
  5
90E
330
1F
100
AcDbEntity
  8
3
  6
Continuous
100
AcDbPolyline
 90
        6
 70
   128
 43
0.0
 10
355.8257516392637
 20
307.080649175021
 10
355.8239429408707
 20
307.0820891538329
 10
355.8210877309567
 20
307.0837958368478
 10
355.81774925374
 20
307.0854916115369
 10
355.8172486790422
 20
307.0857271568322
 10
355.8169720269908
 20
307.0858554827767
  0
LWPOLYLINE
  5
911
330
1F
100
AcDbEntity
  8
3
  6
Continuous
100
AcDbPolyline
 90
        6
 70
   128
 43
0.0
 10
355.8266309761665
 20
307.0796557721047
 10
355.8266226026595
 20
307.0796659126426
 10
355.8264206621999
 20
307.0799056841551
 10
355.8262075403397
 20
307.0801499939352
 10
355.8259848053868
 20
307.0803973940867
 10
355.8257516392637
 20
307.080649175021
  0
LWPOLYLINE
  5
914
330
1F
100
AcDbEntity
  8
3
  6
Continuous
100
AcDbPolyline
 90
        5
 70
   128
 43
0.0
 10
355.8167952823768
 20
307.085944059173
 10
355.8083623403546
 20
307.0896214567676
 10
355.7997308266412
 20
307.092881145658
 10
355.7820649404454
 20
307.0985512886508
 10
355.7669539095862
 20
307.1025379999673
  0
LWPOLYLINE
  5
916
330
1F
100
AcDbEntity
  8
3
  6
Continuous
100
AcDbPolyline
 90
        6
 70
   128
 43
0.0
 10
355.8266309761665
 20
307.0796557721047
 10
355.8138076124288
 20
306.9810033696432
 10
355.8069639348037
 20
306.9282512901536
 10
355.8001371514133
 20
306.8754963270775
 10
355.7933276911871
 20
306.8227385173452
 10
355.7865344905635
 20
306.7699783572026
  0
LWPOLYLINE
  5
91A
330
1F
100
AcDbEntity
  8
3
  6
Continuous
100
AcDbPolyline
 90
        6
 70
   128
 43
0.0
 10
355.6364601730672
 20
306.7752571837533
 10
355.627020504617
 20
306.7753279569827
 10
355.6017761132828
 20
306.7762135551029
 10
355.576587566859
 20
306.7781110264724
 10
355.5513322510647
 20
306.7810408989384
 10
355.5319182772428
 20
306.7840929281065
  0
LWPOLYLINE
  5
91C
330
1F
100
AcDbEntity
  8
3
  6
Continuous
100
AcDbPolyline
 90
        6
 70
   128
 43
0.0
 10
355.5028046141761
 20
306.7386765854799
 10
355.5292938639716
 20
306.7340075440111
 10
355.5559441852422
 20
306.7303687700092
 10
355.5827155224004
 20
306.7277657325685
 10
355.6095676379713
 20
306.726202344065
 10
355.6364601730698
 20
306.7256809542765
  0
LWPOLYLINE
  5
91F
330
1F
100
AcDbEntity
  8
3
  6
Continuous
100
AcDbPolyline
 90
        8
 70
   128
 43
0.0
 10
355.5344460635557
 20
307.1066251762927
 10
355.5493843078719
 20
307.1091963814277
 10
355.5643869328818
 20
307.1113605172345
 10
355.5794428636327
 20
307.1131158356354
 10
355.5945409498371
 20
307.1144611935933
 10
355.6096700410073
 20
307.1153954480916
 10
355.624818938827
 20
307.1159180638947
 10
355.6364601730672
 20
307.1160396347096
  0
LWPOLYLINE
  5
924
330
1F
100
AcDbEntity
  8
3
  6
Continuous
100
AcDbPolyline
 90
        5
 70
   128
 43
0.0
 10
355.4336105925054
 20
307.1842612020364
 10
355.4336110821765
 20
307.1842586731871
 10
355.4336114956773
 20
307.184256121977
 10
355.433611833346
 20
307.1842535430302
 10
355.4336120930242
 20
307.1842509521411
  0
LWPOLYLINE
  5
925
330
1F
100
AcDbEntity
  8
3
  6
Continuous
100
AcDbPolyline
 90
        5
 70
   128
 43
0.0
 10
355.4336120930242
 20
307.1842509521411
 10
355.4336555064511
 20
307.1837415411611
 10
355.4337568788771
 20
307.182559629691
 10
355.4338591430782
 20
307.181377811112
 10
355.43387231867
 20
307.1812262961478
  0
LWPOLYLINE
  5
927
330
1F
100
AcDbEntity
  8
3
  6
Continuous
100
AcDbPolyline
 90
        4
 70
   128
 43
0.0
 10
355.4407110247705
 20
307.188116970023
 10
355.4390459183227
 20
307.1876639703852
 10
355.4365429113329
 20
307.1869678382524
 10
355.4345142917195
 20
307.1863875127949
  0
LWPOLYLINE
  5
929
330
1F
100
AcDbEntity
  8
3
  6
Continuous
100
AcDbPolyline
 90
        7
 70
   128
 43
0.0
 10
355.4336105925054
 20
307.1842612020364
 10
355.4335565163506
 20
307.1849186868072
 10
355.4336712168094
 20
307.185524647097
 10
355.4339417103834
 20
307.1860107870537
 10
355.4343374672506
 20
307.1863222947965
 10
355.4344802059968
 20
307.1863776901171
 10
355.4345142917199
 20
307.186387512795
  0
LINE
  5
92A
330
1F
100
AcDbEntity
  8
3
  6
Continuous
100
AcDbLine
 10
355.4816305844358
 20
307.1980447677751
 30
0.0
 11
355.4837091193643
 21
307.1992577395969
 31
0.0
  0
LWPOLYLINE
  5
92E
330
1F
100
AcDbEntity
  8
3
  6
Continuous
100
AcDbPolyline
 90
        6
 70
   128
 43
0.0
 10
355.4816230356774
 20
307.1979245252121
 10
355.4737796176271
 20
307.196233819148
 10
355.4654788048134
 20
307.1943466445505
 10
355.4571989947157
 20
307.1923641726892
 10
355.448943516414
 20
307.190287596049
 10
355.4407110247705
 20
307.188116970023
  0
LWPOLYLINE
  5
931
330
1F
100
AcDbEntity
  8
3
  6
Continuous
100
AcDbPolyline
 90
        3
 70
   128
 43
0.0
 10
355.516643149684
 20
307.2131602090269
 10
355.5159244602313
 20
307.2130066374501
 10
355.5152009368194
 20
307.2128154889047
  0
LWPOLYLINE
  5
932
330
1F
100
AcDbEntity
  8
3
  6
Continuous
100
AcDbPolyline
 90
        4
 70
   128
 43
0.0
 10
355.5152009368194
 20
307.2128154889047
 10
355.5073845745237
 20
307.2103573830882
 10
355.4996931928704
 20
307.207488288883
 10
355.494332266443
 20
307.205156241059
  0
LWPOLYLINE
  5
935
330
1F
100
AcDbEntity
  8
3
  6
Continuous
100
AcDbPolyline
 90
        6
 70
   128
 43
0.0
 10
355.519374623616
 20
307.2095919376334
 10
355.5194303563467
 20
307.2097411394531
 10
355.5203485200605
 20
307.2113692000073
 10
355.5207001624824
 20
307.2117520995885
 10
355.5216781007965
 20
307.2124125335895
 10
355.5219951189235
 20
307.2125237457514
  0
LWPOLYLINE
  5
937
330
1F
100
AcDbEntity
  8
3
  6
Continuous
100
AcDbPolyline
 90
        6
 70
   128
 43
0.0
 10
355.5219951189235
 20
307.2125237457514
 10
355.5219878348476
 20
307.2125309690695
 10
355.5209275344375
 20
307.2131053619669
 10
355.5195351944785
 20
307.2133568177854
 10
355.5170232752743
 20
307.2132263269435
 10
355.516643149684
 20
307.2131602090269
  0
LWPOLYLINE
  5
939
330
1F
100
AcDbEntity
  8
3
  6
Continuous
100
AcDbPolyline
 90
        5
 70
   128
 43
0.0
 10
355.5188291836698
 20
307.2057064446389
 10
355.5188468508243
 20
307.2063097325937
 10
355.518875000931
 20
307.2069098799065
 10
355.5190159250165
 20
307.2082515148973
 10
355.519374623616
 20
307.2095919376334
  0
LINE
  5
93B
330
1F
100
AcDbEntity
  8
3
  6
Continuous
100
AcDbLine
 10
355.4837091193643
 20
307.1992577395969
 30
0.0
 11
355.4943343110245
 21
307.2051524753255
 31
0.0
  0
LWPOLYLINE
  5
93E
330
1F
100
AcDbEntity
  8
3
  6
Continuous
100
AcDbPolyline
 90
        3
 70
   128
 43
0.0
 10
355.4847511340231
 20
307.2452507726351
 10
355.4831802081195
 20
307.2216888940709
 10
355.4816305844359
 20
307.1980447677751
  0
LWPOLYLINE
  5
93F
330
1F
100
AcDbEntity
  8
3
  6
Continuous
100
AcDbPolyline
 90
       13
 70
   128
 43
0.0
 10
355.4344862068023
 20
307.186378575012
 10
355.4334255262558
 20
307.1860681174426
 10
355.4321205437074
 20
307.1856779704906
 10
355.4310899893402
 20
307.1853615511951
 10
355.4303312256437
 20
307.1851193074226
 10
355.4298089153328
 20
307.1849375502613
 10
355.4296519453856
 20
307.1848733300764
 10
355.4294795934827
 20
307.1847892827151
 10
355.4292987056778
 20
307.1846795912356
 10
355.4290480054626
 20
307.1844791405903
 10
355.428710017323
 20
307.1840644269365
 10
355.4284714019484
 20
307.1834919551545
 10
355.4284337127466
 20
307.1828868986673
  0
LWPOLYLINE
  5
943
330
1F
100
AcDbEntity
  8
3
  6
Continuous
100
AcDbPolyline
 90
        9
 70
   128
 43
0.0
 10
355.4893280870941
 20
307.3110861081663
 10
355.4893894402853
 20
307.3114554850806
 10
355.489518568863
 20
307.3118069524646
 10
355.4897109467568
 20
307.3121281910775
 10
355.4899598309522
 20
307.3124079412229
 10
355.490256497839
 20
307.312636397412
 10
355.4905905489817
 20
307.3128055520544
 10
355.4909502755939
 20
307.3129094761309
 10
355.491323068941
 20
307.3129445270111
  0
LWPOLYLINE
  5
945
330
1F
100
AcDbEntity
  8
3
  6
Continuous
100
AcDbPolyline
 90
        4
 70
   128
 43
0.0
 10
355.4893280870941
 20
307.3110861081663
 10
355.4891649141313
 20
307.3087861760052
 10
355.4869255744906
 20
307.2769972622979
 10
355.4847526093589
 20
307.2452727718429
  0
CIRCLE
  5
94C
330
1F
100
AcDbEntity
  8
3
  6
Continuous
100
AcDbCircle
 10
355.6364601730672
 20
307.1829445270111
 30
0.0
 40
0.0174999990448708
  0
LWPOLYLINE
  5
94F
330
1F
100
AcDbEntity
  8
3
  6
Continuous
100
AcDbPolyline
 90
        3
 70
   128
 43
0.0
 10
355.6364601730672
 20
307.2438383298238
 10
355.6470481909784
 20
307.2432160970567
 10
355.657629327145
 20
307.2422566119231
  0
LWPOLYLINE
  5
950
330
1F
100
AcDbEntity
  8
3
  6
Continuous
100
AcDbPolyline
 90
        3
 70
   128
 43
0.0
 10
355.6152910189902
 20
307.2422566119231
 10
355.6258576666657
 20
307.2432150151822
 10
355.6364601730672
 20
307.2438383298238
  0
LWPOLYLINE
  5
951
330
1F
100
AcDbEntity
  8
3
  6
Continuous
100
AcDbPolyline
 90
        9
 70
   128
 43
0.0
 10
355.6542389442943
 20
307.2258955009733
 10
355.6492529268003
 20
307.226274180912
 10
355.6442590662221
 20
307.2265294614835
 10
355.6392604109857
 20
307.2266609306799
 10
355.6342292671124
 20
307.2266680373296
 10
355.6290451678888
 20
307.2265439559739
 10
355.6264536721116
 20
307.2264318982002
 10
355.6238659717312
 20
307.2262866977646
 10
355.6186814018402
 20
307.2258955009733
  0
LWPOLYLINE
  5
956
330
1F
100
AcDbEntity
  8
3
  6
Continuous
100
AcDbPolyline
 90
        4
 70
   128
 43
0.0
 10
355.757719409315
 20
307.2128154889047
 10
355.7655357716108
 20
307.2103573830882
 10
355.7732271532641
 20
307.207488288883
 10
355.7785880796914
 20
307.205156241059
  0
LWPOLYLINE
  5
957
330
1F
100
AcDbEntity
  8
3
  6
Continuous
100
AcDbPolyline
 90
        3
 70
   128
 43
0.0
 10
355.7562771964505
 20
307.2131602090269
 10
355.7569958859032
 20
307.2130066374501
 10
355.757719409315
 20
307.2128154889047
  0
LWPOLYLINE
  5
959
330
1F
100
AcDbEntity
  8
3
  6
Continuous
100
AcDbPolyline
 90
        5
 70
   128
 43
0.0
 10
355.7540911624647
 20
307.2057064446389
 10
355.7540734953102
 20
307.2063097325937
 10
355.7540453452035
 20
307.2069098799065
 10
355.753904421118
 20
307.2082515148973
 10
355.7535457225184
 20
307.2095919376334
  0
LWPOLYLINE
  5
95A
330
1F
100
AcDbEntity
  8
3
  6
Continuous
100
AcDbPolyline
 90
        6
 70
   128
 43
0.0
 10
355.750925227211
 20
307.2125237457514
 10
355.7509325112869
 20
307.2125309690695
 10
355.751992811697
 20
307.2131053619669
 10
355.753385151656
 20
307.2133568177854
 10
355.7558970708602
 20
307.2132263269435
 10
355.7562771964505
 20
307.2131602090269
  0
LWPOLYLINE
  5
95C
330
1F
100
AcDbEntity
  8
3
  6
Continuous
100
AcDbPolyline
 90
        6
 70
   128
 43
0.0
 10
355.7535457225184
 20
307.2095919376334
 10
355.7534899897877
 20
307.2097411394531
 10
355.7525718260741
 20
307.2113692000073
 10
355.7522201836521
 20
307.2117520995885
 10
355.751242245338
 20
307.2124125335895
 10
355.750925227211
 20
307.2125237457514
  0
LWPOLYLINE
  5
95D
330
1F
100
AcDbEntity
  8
3
  6
Continuous
100
AcDbPolyline
 90
        9
 70
   128
 43
0.0
 10
355.7508960689111
 20
307.2111946097884
 10
355.7513072969162
 20
307.2111048602997
 10
355.7517040581418
 20
307.2109797469311
 10
355.7520818369557
 20
307.210820693627
 10
355.7524363337694
 20
307.2106295106101
 10
355.752763513972
 20
307.2104083737789
 10
355.7530596538495
 20
307.2101597999431
 10
355.753321382965
 20
307.2098866181796
 10
355.7535457225184
 20
307.2095919376334
  0
LWPOLYLINE
  5
95F
330
1F
100
AcDbEntity
  8
3
  6
Continuous
100
AcDbPolyline
 90
        8
 70
   128
 43
0.0
 10
355.7785880789103
 20
307.2051562414735
 10
355.7634282842344
 20
307.2127203844648
 10
355.747960864733
 20
307.2194884967175
 10
355.7322184153159
 20
307.2254463088709
 10
355.7162377142776
 20
307.2305890898986
 10
355.6969145461721
 20
307.2356531160924
 10
355.6773688497305
 20
307.2395452420505
 10
355.6576629549488
 20
307.2422528714028
  0
LWPOLYLINE
  5
960
330
1F
100
AcDbEntity
  8
3
  6
Continuous
100
AcDbPolyline
 90
        6
 70
   128
 43
0.0
 10
355.6542389442943
 20
307.2258955009733
 10
355.6746575931511
 20
307.2238437836714
 10
355.6950288479292
 20
307.2212519224986
 10
355.7181284901568
 20
307.2176442476263
 10
355.7411210840855
 20
307.2133052532505
 10
355.7508960689111
 20
307.2111946097884
  0
LINE
  5
962
330
1F
100
AcDbEntity
  8
3
  6
Continuous
100
AcDbLine
 10
355.7912897616986
 20
307.1980447677751
 30
0.0
 11
355.7892112267701
 21
307.1992577395969
 31
0.0
  0
LWPOLYLINE
  5
967
330
1F
100
AcDbEntity
  8
3
  6
Continuous
100
AcDbPolyline
 90
        6
 70
   128
 43
0.0
 10
355.79120437541
 20
307.1979445580404
 10
355.7991407285073
 20
307.196233819148
 10
355.807441541321
 20
307.1943466445505
 10
355.8157213514188
 20
307.1923641726892
 10
355.8239768297204
 20
307.190287596049
 10
355.832209321364
 20
307.188116970023
  0
LWPOLYLINE
  5
968
330
1F
100
AcDbEntity
  8
3
  6
Continuous
100
AcDbPolyline
 90
       12
 70
   128
 43
0.0
 10
355.8444713475584
 20
307.1828865583102
 10
355.8444822286755
 20
307.1833252367001
 10
355.8443166536837
 20
307.1838671547696
 10
355.8440667988659
 20
307.1842687038251
 10
355.8438009218745
 20
307.1845430516887
 10
355.8435918707429
 20
307.1846993995857
 10
355.8434505490164
 20
307.1847839567598
 10
355.8433275547169
 20
307.1848463935045
 10
355.8431793783094
 20
307.1849108330002
 10
355.8429667705504
 20
307.1849908605859
 10
355.842395598612
 20
307.1851823660202
 10
355.842020187849
 20
307.1853007006703
  0
LWPOLYLINE
  5
96A
330
1F
100
AcDbEntity
  8
3
  6
Continuous
100
AcDbPolyline
 90
        5
 70
   128
 43
0.0
 10
355.8393082531103
 20
307.1842509521411
 10
355.8392648396834
 20
307.1837415411611
 10
355.8391634672574
 20
307.182559629691
 10
355.8390612030563
 20
307.181377811112
 10
355.8390480274645
 20
307.1812262961478
  0
LWPOLYLINE
  5
96D
330
1F
100
AcDbEntity
  8
3
  6
Continuous
100
AcDbPolyline
 90
        7
 70
   128
 43
0.0
 10
355.8393097536291
 20
307.1842612020364
 10
355.839363829784
 20
307.1849186868072
 10
355.8392491293251
 20
307.185524647097
 10
355.8389786357511
 20
307.1860107870537
 10
355.8385828788839
 20
307.1863222947965
 10
355.8384401401377
 20
307.1863776901171
 10
355.8384060544146
 20
307.186387512795
  0
LWPOLYLINE
  5
96F
330
1F
100
AcDbEntity
  8
3
  6
Continuous
100
AcDbPolyline
 90
        4
 70
   128
 43
0.0
 10
355.832209321364
 20
307.188116970023
 10
355.8338744278118
 20
307.1876639703852
 10
355.8363774348015
 20
307.1869678382524
 10
355.838406054415
 20
307.1863875127949
  0
LWPOLYLINE
  5
971
330
1F
100
AcDbEntity
  8
3
  6
Continuous
100
AcDbPolyline
 90
        3
 70
   128
 43
0.0
 10
355.7881692121114
 20
307.2452507726351
 10
355.789740138015
 20
307.2216888940709
 10
355.7912897616986
 20
307.1980447677751
  0
LWPOLYLINE
  5
974
330
1F
100
AcDbEntity
  8
3
  6
Continuous
100
AcDbPolyline
 90
        9
 70
   128
 43
0.0
 10
355.7835922590405
 20
307.3110861081663
 10
355.7835309058492
 20
307.3114554850806
 10
355.7834017772715
 20
307.3118069524646
 10
355.7832093993777
 20
307.3121281910775
 10
355.7829605151824
 20
307.3124079412229
 10
355.7826638482955
 20
307.312636397412
 10
355.7823297971527
 20
307.3128055520544
 10
355.7819700705406
 20
307.3129094761309
 10
355.7815972771934
 20
307.3129445270111
  0
LWPOLYLINE
  5
976
330
1F
100
AcDbEntity
  8
3
  6
Continuous
100
AcDbPolyline
 90
        4
 70
   128
 43
0.0
 10
355.7835922590405
 20
307.3110861081663
 10
355.7837554320032
 20
307.3087861760052
 10
355.7859947716439
 20
307.2769972622979
 10
355.7881677367756
 20
307.2452727718429
  0
LINE
  5
978
330
1F
100
AcDbEntity
  8
3
  6
Continuous
100
AcDbLine
 10
355.6364601730672
 20
307.3129445270111
 30
0.0
 11
355.7815972771934
 21
307.3129445270111
 31
0.0
  0
LINE
  5
979
330
1F
100
AcDbEntity
  8
3
  6
Continuous
100
AcDbLine
 10
355.7892112267701
 20
307.1992577395969
 30
0.0
 11
355.77858603511
 21
307.2051524753255
 31
0.0
  0
LINE
  5
97B
330
1F
100
AcDbEntity
  8
3
  6
Continuous
100
AcDbLine
 10
355.6364601730672
 20
307.3129445270111
 30
0.0
 11
355.491323068941
 21
307.3129445270111
 31
0.0
  0
LWPOLYLINE
  5
97D
330
1F
100
AcDbEntity
  8
3
  6
Continuous
100
AcDbPolyline
 90
        8
 70
   128
 43
0.0
 10
355.4943322672242
 20
307.2051562414735
 10
355.5094920619001
 20
307.2127203844648
 10
355.5249594814015
 20
307.2194884967175
 10
355.5407019308187
 20
307.2254463088709
 10
355.5566826318569
 20
307.2305890898986
 10
355.5760057998253
 20
307.2356531160608
 10
355.5955514961271
 20
307.239545242004
 10
355.6152573907677
 20
307.2422528713577
  0
LWPOLYLINE
  5
97E
330
1F
100
AcDbEntity
  8
3
  6
Continuous
100
AcDbPolyline
 90
        6
 70
   128
 43
0.0
 10
355.6186814018402
 20
307.2258955009733
 10
355.5982555251048
 20
307.2238421871128
 10
355.5778914982053
 20
307.2212519224986
 10
355.5547918559777
 20
307.2176442476263
 10
355.531799262049
 20
307.2133052532505
 10
355.5220242772234
 20
307.2111946097884
  0
LWPOLYLINE
  5
980
330
1F
100
AcDbEntity
  8
3
  6
Continuous
100
AcDbPolyline
 90
       15
 70
   128
 43
0.0
 10
355.7914300438703
 20
306.7514026172548
 10
355.7960131476546
 20
306.7842980583583
 10
355.8014786018889
 20
306.8237864066571
 10
355.806991007617
 20
306.8638981378918
 10
355.812554487981
 20
306.9046657465485
 10
355.8172982078677
 20
306.9397365808896
 10
355.8217061434619
 20
306.9729121576888
 10
355.8257784632755
 20
307.0043855908195
 10
355.8295266996883
 20
307.0343727972724
 10
355.8333259550818
 20
307.0661650780333
 10
355.8363235269427
 20
307.0926951277647
 10
355.8392528532848
 20
307.1207829906114
 10
355.8415633366619
 20
307.1454325425354
 10
355.8434463182857
 20
307.1682799161115
 10
355.8444692148033
 20
307.1828871162853
  0
LWPOLYLINE
  5
981
330
1F
100
AcDbEntity
  8
3
  6
Continuous
100
AcDbPolyline
 90
       15
 70
   128
 43
0.0
 10
355.4284403804525
 20
307.1828863566449
 10
355.4297324656306
 20
307.164938295278
 10
355.4316493988257
 20
307.1421443981389
 10
355.4340056384206
 20
307.1173913213786
 10
355.4367711376076
 20
307.091101898665
 10
355.4398964057421
 20
307.0635745635413
 10
355.4432534792063
 20
307.0355179113542
 10
355.4470396277776
 20
307.0051891215343
 10
355.4511373484436
 20
306.9734977310223
 10
355.455559351928
 20
306.9402043232042
 10
355.4603088415006
 20
306.9050848792622
 10
355.4653770725642
 20
306.8679333128454
 10
355.4707855246685
 20
306.8285461047697
 10
355.4764345479205
 20
306.78770242185
 10
355.4814894337153
 20
306.7514042089563
  0
LWPOLYLINE
  5
988
330
1F
100
AcDbEntity
  8
3
  6
Continuous
100
AcDbPolyline
 90
        6
 70
   128
 43
0.0
 10
355.43387231867
 20
307.1812262961478
 10
355.4367146255261
 20
307.158538095604
 10
355.4395871944716
 20
307.1358527530527
 10
355.4428548758783
 20
307.1102423241435
 10
355.4461391353758
 20
307.084633205735
 10
355.4465919776589
 20
307.0811091787131
  0
LWPOLYLINE
  5
989
330
1F
100
AcDbEntity
  8
3
  6
Continuous
100
AcDbPolyline
 90
        6
 70
   128
 43
0.0
 10
355.8390480274645
 20
307.1812262961478
 10
355.8362057206084
 20
307.158538095604
 10
355.8333331516629
 20
307.1358527530527
 10
355.8300654702562
 20
307.1102423241435
 10
355.8267812107587
 20
307.084633205735
 10
355.8263283684756
 20
307.0811091787131
  0
LINE
  5
98A
330
1F
100
AcDbEntity
  8
3
  6
Continuous
100
AcDbLine
 10
355.5165887387539
 20
307.1104128542196
 30
0.0
 11
355.5188291836698
 21
307.205706444639
 31
0.0
  0
LINE
  5
98B
330
1F
100
AcDbEntity
  8
3
  6
Continuous
100
AcDbLine
 10
355.7563316073805
 20
307.1104128542196
 30
0.0
 11
355.7540911624647
 21
307.205706444639
 31
0.0
  0
LWPOLYLINE
  5
9A1
330
1F
100
AcDbEntity
  8
3
  6
Continuous
100
AcDbPolyline
 90
        3
 70
   128
 43
0.0
 10
356.5754449510988
 20
307.1207737026374
 10
356.5686836875261
 20
307.1207520453295
 10
356.5573715413188
 20
307.1207519182331
  0
LWPOLYLINE
  5
9A2
330
1F
100
AcDbEntity
  8
3
  6
Continuous
100
AcDbPolyline
 90
        3
 70
   128
 43
0.0
 10
356.5573715413188
 20
307.1207519182331
 10
356.5544335966484
 20
307.1207518852241
 10
356.5452714152418
 20
307.1207710271226
  0
ARC
  5
9A3
330
1F
100
AcDbEntity
  8
3
100
AcDbCircle
 10
356.5469933848858
 20
307.1168266360786
 30
0.0
 40
0.0110956735234834
100
AcDbArc
 50
20.71789015736337
 51
77.49814630290488
  0
LWPOLYLINE
  5
9A5
330
1F
100
AcDbEntity
  8
3
  6
Continuous
100
AcDbPolyline
 90
        3
 70
   128
 43
0.0
 10
356.250916531396
 20
307.1207533213121
 10
356.2413435648707
 20
307.1207495885897
 10
356.2328324530796
 20
307.1207745690998
  0
LINE
  5
9A6
330
1F
100
AcDbEntity
  8
3
100
AcDbLine
 10
356.2289561583996
 20
307.1207859462055
 30
0.0
 11
356.2328324530796
 21
307.1207745690998
 31
0.0
  0
LWPOLYLINE
  5
9A7
330
1F
100
AcDbEntity
  8
3
  6
Continuous
100
AcDbPolyline
 90
        2
 70
   128
 43
0.0
 10
356.2289561583996
 20
307.1207859462055
 10
356.2221826841656
 20
307.120839463293
  0
ARC
  5
9A8
330
1F
100
AcDbEntity
  8
3
100
AcDbCircle
 10
356.5862342413467
 20
307.1129619431443
 30
0.0
 40
0.0086857116083818
100
AcDbArc
 50
26.42722635382777
 51
93.13052326080338
  0
ARC
  5
9A9
330
1F
100
AcDbEntity
  8
3
100
AcDbCircle
 10
356.5856340745327
 20
307.1106491300883
 30
0.0
 40
0.0102003392925583
100
AcDbArc
 50
31.67572107240319
 51
87.36547173437999
  0
LINE
  5
9AA
330
1F
100
AcDbEntity
  8
3
100
AcDbLine
 10
356.2221986340239
 20
307.1216432609663
 30
0.0
 11
356.222675240414
 21
307.1216248746777
 31
0.0
  0
ARC
  5
9AB
330
1F
100
AcDbEntity
  8
3
100
AcDbCircle
 10
356.2218164122092
 20
307.1133470186616
 30
0.0
 40
0.0083050424378223
100
AcDbArc
 50
87.36215253171947
 51
155.2225954303223
  0
ARC
  5
9AC
330
1F
100
AcDbEntity
  8
3
100
AcDbCircle
 10
356.2219863108737
 20
307.1117851462413
 30
0.0
 40
0.0090564463087474
100
AcDbArc
 50
88.7575432685465
 51
152.2251048131196
  0
LWPOLYLINE
  5
9AD
330
1F
100
AcDbEntity
  8
3
  6
Continuous
100
AcDbPolyline
 90
        9
 70
   128
 43
0.0
 10
356.2563742859875
 20
306.7870991545788
 10
356.2560318920986
 20
306.7871302977687
 10
356.2557001614477
 20
306.7872227574402
 10
356.2553894251853
 20
306.7873736541042
 10
356.25510936063
 20
306.7875782883571
 10
356.2548686898853
 20
306.7878302872356
 10
356.2546749082059
 20
306.7881218026908
 10
356.2545340505716
 20
306.7884437560015
 10
356.2544505037383
 20
306.7887861205145
  0
LWPOLYLINE
  5
9AE
330
1F
100
AcDbEntity
  8
3
  6
Continuous
100
AcDbPolyline
 90
        5
 70
   128
 43
0.0
 10
356.2418627920084
 20
306.9817491041155
 10
356.2416619830088
 20
306.9850698368751
 10
356.2409296344841
 20
306.9884029176687
 10
356.2397845754808
 20
306.9913659407748
 10
356.238175979458
 20
306.9941842524678
  0
LINE
  5
9AF
330
1F
100
AcDbEntity
  8
3
  6
Continuous
100
AcDbLine
 10
356.3078404234684
 20
306.9401822511441
 30
0.0
 11
356.3099531350865
 21
306.9361859339266
 31
0.0
  0
LINE
  5
9B0
330
1F
100
AcDbEntity
  8
3
  6
Continuous
100
AcDbLine
 10
356.311731810463
 20
306.925192275035
 30
0.0
 11
356.3113920321933
 21
306.9186768582872
 31
0.0
  0
LWPOLYLINE
  5
9B1
330
1F
100
AcDbEntity
  8
3
  6
Continuous
100
AcDbPolyline
 90
        6
 70
   128
 43
0.0
 10
356.3099531350866
 20
306.9361859339265
 10
356.3107102462258
 20
306.9343784530557
 10
356.3113149940501
 20
306.9321985349915
 10
356.3116421714024
 20
306.9302106363353
 10
356.3118008107536
 20
306.9279880844265
 10
356.3117318104631
 20
306.925192275035
  0
LWPOLYLINE
  5
9B3
330
1F
100
AcDbEntity
  8
3
  6
Continuous
100
AcDbPolyline
 90
        4
 70
   128
 43
0.0
 10
356.2418627920084
 20
306.9817491041155
 10
356.2669663411795
 20
306.9618326906578
 10
356.2905319372257
 20
306.9427778088033
 10
356.3117318104631
 20
306.925192275035
  0
LWPOLYLINE
  5
9B6
330
1F
100
AcDbEntity
  8
3
  6
Continuous
100
AcDbPolyline
 90
        7
 70
   128
 43
0.0
 10
356.2544505037383
 20
306.7887861205145
 10
356.2497669959526
 20
306.8225813483621
 10
356.2461575204851
 20
306.8565497290625
 10
356.2437734269002
 20
306.8877231754381
 10
356.2422585772243
 20
306.9189803965163
 10
356.2416168939503
 20
306.9503489437411
 10
356.2418627920084
 20
306.9817491041155
  0
LWPOLYLINE
  5
9B8
330
1F
100
AcDbEntity
  8
3
  6
Continuous
100
AcDbPolyline
 90
        9
 70
   128
 43
0.0
 10
356.3192497966482
 20
306.7870991545788
 10
356.318897308784
 20
306.7871321574309
 10
356.3185564540248
 20
306.7872300767992
 10
356.3182384815495
 20
306.787389681065
 10
356.317953885357
 20
306.7876057028325
 10
356.3177120579333
 20
306.7878710127672
 10
356.317520980273
 20
306.7881768548845
 10
356.317386958484
 20
306.7885131355223
 10
356.3173144156674
 20
306.7888687564603
  0
LINE
  5
9B9
330
1F
100
AcDbEntity
  8
3
  6
Continuous
100
AcDbLine
 10
356.3192497966482
 20
306.7870991545788
 30
0.0
 11
356.3266672154028
 21
306.7870991545788
 31
0.0
  0
LINE
  5
9BA
330
1F
100
AcDbEntity
  8
3
  6
Continuous
100
AcDbLine
 10
356.4036655193981
 20
306.7870991545788
 30
0.0
 11
356.4046226884513
 21
306.7870991545788
 31
0.0
  0
LINE
  5
9BB
330
1F
100
AcDbEntity
  8
3
  6
Continuous
100
AcDbLine
 10
356.3266672154028
 20
306.7870991545788
 30
0.0
 11
356.4036655193981
 21
306.7870991545788
 31
0.0
  0
LINE
  5
9BD
330
1F
100
AcDbEntity
  8
3
  6
Continuous
100
AcDbLine
 10
356.4890384112012
 20
306.7870991545788
 30
0.0
 11
356.4816209924465
 21
306.7870991545788
 31
0.0
  0
LWPOLYLINE
  5
9BE
330
1F
100
AcDbEntity
  8
3
  6
Continuous
100
AcDbPolyline
 90
        9
 70
   128
 43
0.0
 10
356.4890384112012
 20
306.7870991545788
 10
356.4893908990654
 20
306.7871321574309
 10
356.4897317538247
 20
306.7872300767992
 10
356.4900497262998
 20
306.787389681065
 10
356.4903343224923
 20
306.7876057028325
 10
356.4905761499161
 20
306.7878710127672
 10
356.4907672275765
 20
306.7881768548845
 10
356.4909012493655
 20
306.7885131355223
 10
356.490973792182
 20
306.7888687564603
  0
LINE
  5
9BF
330
1F
100
AcDbEntity
  8
3
  6
Continuous
100
AcDbLine
 10
356.4816209924465
 20
306.7870991545788
 30
0.0
 11
356.4046226884513
 21
306.7870991545788
 31
0.0
  0
LWPOLYLINE
  5
9C4
330
1F
100
AcDbEntity
  8
3
  6
Continuous
100
AcDbPolyline
 90
        9
 70
   128
 43
0.0
 10
356.4027536311658
 20
306.9212596423336
 10
356.4031012346524
 20
306.9212599249508
 10
356.4034488507415
 20
306.9212601268226
 10
356.4037964752326
 20
306.9212602479467
 10
356.4041441039247
 20
306.9212602883215
 10
356.4044917326167
 20
306.9212602479467
 10
356.4048393571078
 20
306.9212601268226
 10
356.4051869731971
 20
306.9212599249508
 10
356.4055345766836
 20
306.9212596423336
  0
LWPOLYLINE
  5
9C6
330
1F
100
AcDbEntity
  8
3
  6
Continuous
100
AcDbPolyline
 90
        6
 70
   128
 43
0.0
 10
356.3233794605374
 20
306.9226222023421
 10
356.3389924885552
 20
306.922319423586
 10
356.3516514861379
 20
306.9220958376654
 10
356.3643584142901
 20
306.921878374778
 10
356.3842113336453
 20
306.9215462997593
 10
356.4027536311658
 20
306.9212596423336
  0
LINE
  5
9C7
330
1F
100
AcDbEntity
  8
3
  6
Continuous
100
AcDbLine
 10
356.4015310061224
 20
307.0781220722894
 30
0.0
 11
356.406757201727
 21
307.0781220722894
 31
0.0
  0
LWPOLYLINE
  5
9CA
330
1F
100
AcDbEntity
  8
3
  6
Continuous
100
AcDbPolyline
 90
        3
 70
   128
 43
0.0
 10
356.5004477843809
 20
306.9401822511441
 10
356.4994688740301
 20
306.9382784778499
 10
356.4983350727629
 20
306.9361859339265
  0
LWPOLYLINE
  5
9CB
330
1F
100
AcDbEntity
  8
3
  6
Continuous
100
AcDbPolyline
 90
        5
 70
   128
 43
0.0
 10
356.4965563973863
 20
306.925192275035
 10
356.4966770661915
 20
306.9235848808515
 10
356.4967740481169
 20
306.9219633365739
 10
356.4968473432412
 20
306.9203231409886
 10
356.4968961756561
 20
306.9186768582871
  0
LWPOLYLINE
  5
9CC
330
1F
100
AcDbEntity
  8
3
  6
Continuous
100
AcDbPolyline
 90
        6
 70
   128
 43
0.0
 10
356.4983350727629
 20
306.9361859339265
 10
356.4975779616236
 20
306.9343784530557
 10
356.4969732137993
 20
306.9321985349915
 10
356.496646036447
 20
306.9302106363353
 10
356.4964873970958
 20
306.9279880844265
 10
356.4965563973863
 20
306.925192275035
  0
LWPOLYLINE
  5
9CF
330
1F
100
AcDbEntity
  8
3
  6
Continuous
100
AcDbPolyline
 90
        9
 70
   128
 43
0.0
 10
356.484908747312
 20
306.9226222023421
 10
356.4868501156068
 20
306.9228520376463
 10
356.4888072872947
 20
306.9231303678602
 10
356.4906289705034
 20
306.923438343312
 10
356.4922784969937
 20
306.9237697648351
 10
356.493722663829
 20
306.9241179613228
 10
356.4949324017098
 20
306.9244759240084
 10
356.4958833601027
 20
306.9248364475441
 10
356.4965563973863
 20
306.925192275035
  0
LWPOLYLINE
  5
9D4
330
1F
100
AcDbEntity
  8
3
  6
Continuous
100
AcDbPolyline
 90
        6
 70
   128
 43
0.0
 10
356.484908747312
 20
306.9226222023421
 10
356.4692957192942
 20
306.922319423586
 10
356.4566367217115
 20
306.9220958376654
 10
356.4439297935593
 20
306.921878374778
 10
356.424076874204
 20
306.9215462997593
 10
356.4055345766836
 20
306.9212596423336
  0
LWPOLYLINE
  5
9D7
330
1F
100
AcDbEntity
  8
3
  6
Continuous
100
AcDbPolyline
 90
        5
 70
   128
 43
0.0
 10
356.4968961756561
 20
306.9186768582871
 10
356.4970551138328
 20
306.8858508770383
 10
356.496078695529
 20
306.8529794075318
 10
356.4940474308183
 20
306.8209013513617
 10
356.490973792182
 20
306.7888687564603
  0
LWPOLYLINE
  5
9D8
330
1F
100
AcDbEntity
  8
3
  6
Continuous
100
AcDbPolyline
 90
        9
 70
   128
 43
0.0
 10
356.5519139218619
 20
306.7870991545788
 10
356.5522563157508
 20
306.7871302977687
 10
356.5525880464017
 20
306.7872227574402
 10
356.552898782664
 20
306.7873736541042
 10
356.5531788472194
 20
306.7875782883571
 10
356.5534195179641
 20
306.7878302872356
 10
356.5536132996435
 20
306.7881218026908
 10
356.5537541572778
 20
306.7884437560015
 10
356.5538377041111
 20
306.7887861205145
  0
LWPOLYLINE
  5
9D9
330
1F
100
AcDbEntity
  8
3
  6
Continuous
100
AcDbPolyline
 90
        5
 70
   128
 43
0.0
 10
356.566425415841
 20
306.9817491041155
 10
356.5666262248407
 20
306.9850698368751
 10
356.5673585733653
 20
306.9884029176687
 10
356.5685036323686
 20
306.9913659407748
 10
356.5701122283913
 20
306.9941842524678
  0
LWPOLYLINE
  5
9DA
330
1F
100
AcDbEntity
  8
3
  6
Continuous
100
AcDbPolyline
 90
        7
 70
   128
 43
0.0
 10
356.5538377041111
 20
306.7887861205145
 10
356.5585212118969
 20
306.8225813483621
 10
356.5621306873643
 20
306.8565497290625
 10
356.5645147809492
 20
306.8877231754381
 10
356.566029630625
 20
306.9189803965163
 10
356.5666713138991
 20
306.9503489437411
 10
356.566425415841
 20
306.9817491041155
  0
LWPOLYLINE
  5
9DC
330
1F
100
AcDbEntity
  8
3
  6
Continuous
100
AcDbPolyline
 90
        7
 70
   128
 43
0.0
 10
356.566425415841
 20
306.9817491041155
 10
356.5538533734051
 20
306.9717683941122
 10
356.5413218666699
 20
306.9618326906578
 10
356.5295132709226
 20
306.9523544938655
 10
356.5177562706237
 20
306.9427778088033
 10
356.507143780018
 20
306.9340193762974
 10
356.4965563973863
 20
306.925192275035
  0
LINE
  5
9DD
330
1F
100
AcDbEntity
  8
3
  6
Continuous
100
AcDbLine
 10
356.5519139218618
 20
306.7870991545788
 30
0.0
 11
356.4890384112012
 21
306.7870991545788
 31
0.0
  0
LWPOLYLINE
  5
9DF
330
1F
100
AcDbEntity
  8
3
  6
Continuous
100
AcDbPolyline
 90
        5
 70
   128
 43
0.0
 10
356.3113920321933
 20
306.9186768582871
 10
356.3112330940166
 20
306.8858508770383
 10
356.3122095123204
 20
306.8529794075318
 10
356.3142407770311
 20
306.8209013513617
 10
356.3173144156674
 20
306.7888687564603
  0
LWPOLYLINE
  5
9E1
330
1F
100
AcDbEntity
  8
3
  6
Continuous
100
AcDbPolyline
 90
        9
 70
   128
 43
0.0
 10
356.3233794605374
 20
306.9226222023421
 10
356.3214380922426
 20
306.9228520376463
 10
356.3194809205547
 20
306.9231303678602
 10
356.317659237346
 20
306.923438343312
 10
356.3160097108557
 20
306.9237697648351
 10
356.3145655440204
 20
306.9241179613228
 10
356.3133558061396
 20
306.9244759240084
 10
356.3124048477467
 20
306.9248364475441
 10
356.3117318104631
 20
306.925192275035
  0
LINE
  5
9E2
330
1F
100
AcDbEntity
  8
3
  6
Continuous
100
AcDbLine
 10
356.2563742859875
 20
306.7870991545788
 30
0.0
 11
356.3192497966482
 21
306.7870991545788
 31
0.0
  0
LWPOLYLINE
  5
9E3
330
1F
100
AcDbEntity
  8
3
  6
Continuous
100
AcDbPolyline
 90
        5
 70
   128
 43
0.0
 10
356.2142759085164
 20
307.1168276125695
 10
356.2141276409624
 20
307.1164236218194
 10
356.2140525977229
 20
307.1162198075882
 10
356.2139765667061
 20
307.1160142449946
 10
356.2139733008255
 20
307.1160054412202
  0
LWPOLYLINE
  5
9E7
330
1F
100
AcDbEntity
  8
3
  6
Continuous
100
AcDbPolyline
 90
        5
 70
   128
 43
0.0
 10
356.2522248737836
 20
307.0984911624647
 10
356.2517091657946
 20
307.0967938110658
 10
356.2511430556916
 20
307.0951871894892
 10
356.250540387588
 20
307.0937193333167
 10
356.250381647018
 20
307.0933770662991
  0
LWPOLYLINE
  5
9E8
330
1F
100
AcDbEntity
  8
3
  6
Continuous
100
AcDbPolyline
 90
        3
 70
   128
 43
0.0
 10
356.2566026432359
 20
307.1141949708437
 10
356.2555156996489
 20
307.1102964138662
 10
356.2522248737836
 20
307.0984911624647
  0
LWPOLYLINE
  5
9EA
330
1F
100
AcDbEntity
  8
3
  6
Continuous
100
AcDbPolyline
 90
        5
 70
   128
 43
0.0
 10
356.2503053554387
 20
307.0932176260236
 10
356.249431560462
 20
307.0897991478139
 10
356.2491618420207
 20
307.0861942607938
 10
356.2495824042577
 20
307.0824295970166
 10
356.2507778218751
 20
307.0786892125885
  0
LWPOLYLINE
  5
9EE
330
1F
100
AcDbEntity
  8
3
  6
Continuous
100
AcDbPolyline
 90
        3
 70
   128
 43
0.0
 10
356.222125296819
 20
307.1216463150288
 10
356.2136649008952
 20
307.1217042132348
 10
356.2083654917854
 20
307.121751716664
  0
LINE
  5
9EF
330
1F
100
AcDbEntity
  8
3
  6
Continuous
100
AcDbLine
 10
356.2228221810382
 20
307.1216150561237
 30
0.0
 11
356.2226752404139
 21
307.1216248746777
 31
0.0
  0
LWPOLYLINE
  5
9F0
330
1F
100
AcDbEntity
  8
3
  6
Continuous
100
AcDbPolyline
 90
        9
 70
   128
 43
0.0
 10
356.2528001527913
 20
307.1233111773695
 10
356.2524569891487
 20
307.122835994582
 10
356.2521472565518
 20
307.1224147273595
 10
356.2518753529244
 20
307.1220482087691
 10
356.2516447209152
 20
307.1217382843676
 10
356.2514579575428
 20
307.1214872254013
 10
356.2513001043094
 20
307.1212745821247
 10
356.2510580184284
 20
307.1209468770318
 10
356.250916531396
 20
307.1207533213121
  0
LWPOLYLINE
  5
9F2
330
1F
100
AcDbEntity
  8
3
  6
Continuous
100
AcDbPolyline
 90
        4
 70
   128
 43
0.0
 10
356.2328324530796
 20
307.1207745690998
 10
356.231316645079
 20
307.1209005381046
 10
356.2270107362487
 20
307.1212611986126
 10
356.2228221810383
 20
307.1216150561237
  0
LWPOLYLINE
  5
9F3
330
1F
100
AcDbEntity
  8
3
  6
Continuous
100
AcDbPolyline
 90
        4
 70
   128
 43
0.0
 10
356.2012960238817
 20
307.1187034434045
 10
356.2038587805546
 20
307.120651332938
 10
356.2069908710456
 20
307.1216589963838
 10
356.2083669510566
 20
307.1216984112384
  0
LWPOLYLINE
  5
9F6
330
1F
100
AcDbEntity
  8
3
  6
Continuous
100
AcDbPolyline
 90
        8
 70
   128
 43
0.0
 10
356.2701448312981
 20
307.1213394226246
 10
356.2691752528508
 20
307.1213566224194
 10
356.2679314000604
 20
307.1213625938142
 10
356.2667640356162
 20
307.1213457829395
 10
356.2653411836743
 20
307.1212595592193
 10
356.2643917212097
 20
307.1211257848309
 10
356.2634773191574
 20
307.1209181831938
 10
356.2626867712178
 20
307.1206524597105
  0
LWPOLYLINE
  5
9F7
330
1F
100
AcDbEntity
  8
3
  6
Continuous
100
AcDbPolyline
 90
        3
 70
   128
 43
0.0
 10
356.272344347352
 20
307.1213450993462
 10
356.2709743338619
 20
307.1213274201834
 10
356.2701392009461
 20
307.1213445716395
  0
LWPOLYLINE
  5
9FB
330
1F
100
AcDbEntity
  8
3
  6
Continuous
100
AcDbPolyline
 90
        3
 70
   128
 43
0.0
 10
356.26303768494
 20
307.1207704108327
 10
356.2562089824804
 20
307.1207553849619
 10
356.2514240191015
 20
307.1207535191934
  0
LWPOLYLINE
  5
9FC
330
1F
100
AcDbEntity
  8
3
  6
Continuous
100
AcDbPolyline
 90
        6
 70
   128
 43
0.0
 10
356.2586530494576
 20
307.127494823783
 10
356.2573211064568
 20
307.1271332556016
 10
356.2560391242635
 20
307.1265127158645
 10
356.2547461217214
 20
307.1255516845115
 10
356.2535727591821
 20
307.1243131025487
 10
356.2527971351729
 20
307.1232455075286
  0
LWPOLYLINE
  5
9FF
330
1F
100
AcDbEntity
  8
3
  6
Continuous
100
AcDbPolyline
 90
        7
 70
   128
 43
0.0
 10
356.2626792117819
 20
307.1206650137684
 10
356.261967501842
 20
307.1203752355087
 10
356.2605020791949
 20
307.1195513787118
 10
356.2591981345783
 20
307.1184877375757
 10
356.2580933891417
 20
307.1172150816333
 10
356.2572198015036
 20
307.1157702269003
 10
356.2566026432359
 20
307.1141949708437
  0
LWPOLYLINE
  5
A01
330
1F
100
AcDbEntity
  8
3
  6
Continuous
100
AcDbPolyline
 90
       11
 70
   128
 43
0.0
 10
356.1963167189667
 20
307.1020881440496
 10
356.1993567743982
 20
307.098001509705
 10
356.2030571844516
 20
307.094094839401
 10
356.2072500451823
 20
307.090597314773
 10
356.2118514694347
 20
307.0875927584584
 10
356.2166837670386
 20
307.0850949296797
 10
356.2216601528804
 20
307.0830651295445
 10
356.2292795384257
 20
307.0807963871562
 10
356.2369760011299
 20
307.0793661787425
 10
356.2438829105343
 20
307.0787286192834
 10
356.2507778218751
 20
307.0786892125885
  0
LWPOLYLINE
  5
A02
330
1F
100
AcDbEntity
  8
3
  6
Continuous
100
AcDbPolyline
 90
        7
 70
   128
 43
0.0
 10
356.1963167189667
 20
307.1020881440496
 10
356.196103604749
 20
307.1053691467918
 10
356.1964357015906
 20
307.1087356533583
 10
356.1972786696126
 20
307.1119001575293
 10
356.1986508247469
 20
307.1149610803808
 10
356.1998615893918
 20
307.1168979048034
 10
356.2012945233628
 20
307.1187033827005
  0
LWPOLYLINE
  5
A0A
330
1F
100
AcDbEntity
  8
3
  6
Continuous
100
AcDbPolyline
 90
        9
 70
   128
 43
0.0
 10
356.5456062088152
 20
307.1206499786108
 10
356.5450724332912
 20
307.1208429713621
 10
356.5441306703424
 20
307.1210805087256
 10
356.5433269365519
 20
307.1212151242095
 10
356.5426191043633
 20
307.1212894033535
 10
356.5418398822353
 20
307.1213349924724
 10
356.5404629372971
 20
307.1213621865975
 10
356.5392821858841
 20
307.1213584484867
 10
356.5381460443403
 20
307.1213400437795
  0
LWPOLYLINE
  5
A0B
330
1F
100
AcDbEntity
  8
3
  6
Continuous
100
AcDbPolyline
 90
        3
 70
   128
 43
0.0
 10
356.5381490489372
 20
307.1213474599038
 10
356.5366049779502
 20
307.1213208118334
 10
356.5359456255044
 20
307.1213334393569
  0
LWPOLYLINE
  5
A11
330
1F
100
AcDbEntity
  8
3
  6
Continuous
100
AcDbPolyline
 90
        5
 70
   128
 43
0.0
 10
356.5560633340658
 20
307.0984911624647
 10
356.5565790420547
 20
307.0967938110658
 10
356.5571451521578
 20
307.0951871894892
 10
356.5577478202613
 20
307.0937193333167
 10
356.5579065608314
 20
307.0933770662991
  0
LWPOLYLINE
  5
A12
330
1F
100
AcDbEntity
  8
3
  6
Continuous
100
AcDbPolyline
 90
        3
 70
   128
 43
0.0
 10
356.5516855646135
 20
307.1141949708437
 10
356.5527725082005
 20
307.1102964138662
 10
356.5560633340658
 20
307.0984911624647
  0
LWPOLYLINE
  5
A14
330
1F
100
AcDbEntity
  8
3
  6
Continuous
100
AcDbPolyline
 90
        5
 70
   128
 43
0.0
 10
356.5579828524108
 20
307.0932176260236
 10
356.5588566473875
 20
307.0897991478139
 10
356.5591263658287
 20
307.0861942607938
 10
356.5587058035916
 20
307.0824295970166
 10
356.5575103859743
 20
307.0786892125885
  0
LWPOLYLINE
  5
A16
330
1F
100
AcDbEntity
  8
3
  6
Continuous
100
AcDbPolyline
 90
        5
 70
   128
 43
0.0
 10
356.5940122993331
 20
307.1168276125695
 10
356.594160566887
 20
307.1164236218194
 10
356.5942356101266
 20
307.1162198075882
 10
356.5943116411434
 20
307.1160142449946
 10
356.594314907024
 20
307.1160054412202
  0
LWPOLYLINE
  5
A1A
330
1F
100
AcDbEntity
  8
3
  6
Continuous
100
AcDbPolyline
 90
        4
 70
   128
 43
0.0
 10
356.5999226942826
 20
307.1217517122267
 10
356.5961407770741
 20
307.121716445566
 10
356.5879548421051
 20
307.1216568800206
 10
356.5861715222813
 20
307.1216470501862
  0
LINE
  5
A1B
330
1F
100
AcDbEntity
  8
3
  6
Continuous
100
AcDbLine
 10
356.5854660268112
 20
307.1216150561237
 30
0.0
 11
356.5857599080596
 21
307.1216346932316
 31
0.0
  0
LWPOLYLINE
  5
A1C
330
1F
100
AcDbEntity
  8
3
  6
Continuous
100
AcDbPolyline
 90
        4
 70
   128
 43
0.0
 10
356.5754449510988
 20
307.1207737026374
 10
356.5770716125779
 20
307.1209088923604
 10
356.5813356183235
 20
307.1212660325115
 10
356.5854660268112
 20
307.1216150561237
  0
LWPOLYLINE
  5
A1F
330
1F
100
AcDbEntity
  8
3
  6
Continuous
100
AcDbPolyline
 90
        7
 70
   128
 43
0.0
 10
356.6119714888828
 20
307.1020881440496
 10
356.6121846031005
 20
307.1053691467918
 10
356.6118525062588
 20
307.1087356533583
 10
356.6110095382368
 20
307.1119001575293
 10
356.6096373831026
 20
307.1149610803808
 10
356.6084266184576
 20
307.1168979048034
 10
356.6069936844866
 20
307.1187033827005
  0
LWPOLYLINE
  5
A22
330
1F
100
AcDbEntity
  8
3
  6
Continuous
100
AcDbPolyline
 90
       12
 70
   128
 43
0.0
 10
356.6119714888827
 20
307.1020881440496
 10
356.609761491229
 20
307.0989945835906
 10
356.6071560689281
 20
307.0959717484381
 10
356.6042236337095
 20
307.0931541563818
 10
356.6010381626671
 20
307.090597314773
 10
356.5976092265305
 20
307.0882934932495
 10
356.594038627107
 20
307.0862805400828
 10
356.586628054969
 20
307.0830651295445
 10
356.5790074476705
 20
307.080798848565
 10
356.5713122067195
 20
307.0793661787425
 10
356.5644052973151
 20
307.0787286192834
 10
356.5575103859743
 20
307.0786892125885
  0
LWPOLYLINE
  5
A23
330
1F
100
AcDbEntity
  8
3
  6
Continuous
100
AcDbPolyline
 90
        4
 70
   128
 43
0.0
 10
356.6069921839678
 20
307.1187034434045
 10
356.6044294272948
 20
307.120651332938
 10
356.6012973368038
 20
307.1216589963838
 10
356.5999212361339
 20
307.12169841183
  0
LWPOLYLINE
  5
A24
330
1F
100
AcDbEntity
  8
3
  6
Continuous
100
AcDbPolyline
 90
        2
 70
   128
 43
0.0
 10
356.5861029330406
 20
307.1208386881446
 10
356.5794408450972
 20
307.1207865020655
  0
LWPOLYLINE
  5
A27
330
1F
100
AcDbEntity
  8
3
  6
Continuous
100
AcDbPolyline
 90
        7
 70
   128
 43
0.0
 10
356.5456135922213
 20
307.1206633487839
 10
356.5463207060073
 20
307.1203752355087
 10
356.5477861286544
 20
307.1195513787118
 10
356.5490900732712
 20
307.1184877375757
 10
356.5501948187077
 20
307.1172150816333
 10
356.5510684063458
 20
307.1157702269003
 10
356.5516855646135
 20
307.1141949708437
  0
LWPOLYLINE
  5
A28
330
1F
100
AcDbEntity
  8
3
  6
Continuous
100
AcDbPolyline
 90
        6
 70
   128
 43
0.0
 10
356.5493952786488
 20
307.1276592201328
 10
356.5132466799632
 20
307.1294861140811
 10
356.4770708203653
 20
307.1308358622271
 10
356.4520061664538
 20
307.1314890814473
 10
356.4269344088744
 20
307.1319107161751
 10
356.4041441039247
 20
307.1320924540005
  0
LWPOLYLINE
  5
A2C
330
1F
100
AcDbEntity
  8
3
  6
Continuous
100
AcDbPolyline
 90
        6
 70
   128
 43
0.0
 10
356.2588929292006
 20
307.1276592201328
 10
356.2950415278862
 20
307.1294861140811
 10
356.3312173874841
 20
307.1308358622271
 10
356.3562820413956
 20
307.1314890814473
 10
356.381353798975
 20
307.1319107161751
 10
356.4041441039247
 20
307.1320924540005
  0
LWPOLYLINE
  5
A2F
330
1F
100
AcDbEntity
  8
3
  6
Continuous
100
AcDbPolyline
 90
        8
 70
   128
 43
0.0
 10
356.5453166295723
 20
307.0778128630344
 10
356.5343812784714
 20
307.0780986680843
 10
356.5131531996063
 20
307.0785391462034
 10
356.491844850941
 20
307.078806648081
 10
356.470464936951
 20
307.0788913300245
 10
356.4539299590724
 20
307.078831407982
 10
356.4373702667251
 20
307.078668378711
 10
356.406757201727
 20
307.0781220722894
  0
LWPOLYLINE
  5
A31
330
1F
100
AcDbEntity
  8
3
  6
Continuous
100
AcDbPolyline
 90
        8
 70
   128
 43
0.0
 10
356.2629715782771
 20
307.0778128630344
 10
356.273906929378
 20
307.0780986680843
 10
356.2951350082432
 20
307.0785391462034
 10
356.3164433569085
 20
307.078806648081
 10
356.3378232708984
 20
307.0788913300245
 10
356.3543582487771
 20
307.078831407982
 10
356.3709179411243
 20
307.078668378711
 10
356.4015310061224
 20
307.0781220722894
  0
LWPOLYLINE
  5
A34
330
1F
100
AcDbEntity
  8
3
  6
Continuous
100
AcDbPolyline
 90
        9
 70
   128
 43
0.0
 10
356.2507778218751
 20
307.0786892125885
 10
356.2569792294823
 20
307.0605068524482
 10
356.2634617352086
 20
307.0425661846515
 10
356.2702210852692
 20
307.024854707482
 10
356.2772447942725
 20
307.0073993863985
 10
356.2845416416376
 20
306.9901735363465
 10
356.2920804164107
 20
306.9732303684844
 10
356.2998535593604
 20
306.956562109981
 10
356.3078404234685
 20
306.9401822511441
  0
LWPOLYLINE
  5
A35
330
1F
100
AcDbEntity
  8
3
  6
Continuous
100
AcDbPolyline
 90
        9
 70
   128
 43
0.0
 10
356.5575103859743
 20
307.0786892125885
 10
356.551308978367
 20
307.0605068524482
 10
356.5448264726407
 20
307.0425661846515
 10
356.5380671225802
 20
307.024854707482
 10
356.5310434135769
 20
307.0073993863985
 10
356.5237465662118
 20
306.9901735363465
 10
356.5162077914387
 20
306.9732303684844
 10
356.508434648489
 20
306.956562109981
 10
356.5004477843809
 20
306.9401822511441
  0
LWPOLYLINE
  5
A36
330
1F
100
AcDbEntity
  8
3
  6
Continuous
100
AcDbPolyline
 90
       12
 70
   128
 43
0.0
 10
356.5701122283913
 20
306.9941842524678
 10
356.5759488744341
 20
307.0032504342395
 10
356.5814030412315
 20
307.01255636101
 10
356.5864717719445
 20
307.0220835645343
 10
356.5911489937954
 20
307.031816538829
 10
356.5912116112916
 20
307.031954081968
 10
356.5954563637095
 20
307.0418097275206
 10
356.5993019916429
 20
307.0518364974547
 10
356.6029980053821
 20
307.0628393238661
 10
356.6062085792266
 20
307.0740029170698
 10
356.6094762846644
 20
307.0879366598394
 10
356.6119714888828
 20
307.1020881440496
  0
LWPOLYLINE
  5
A37
330
1F
100
AcDbEntity
  8
3
  6
Continuous
100
AcDbPolyline
 90
       11
 70
   128
 43
0.0
 10
356.238175979458
 20
306.9941842524678
 10
356.2323393334153
 20
307.0032504342395
 10
356.2268851666179
 20
307.01255636101
 10
356.2217823543879
 20
307.0221509474882
 10
356.2170765965579
 20
307.031954081968
 10
356.2126859353131
 20
307.0421690432404
 10
356.2087240404261
 20
307.0525671006071
 10
356.2051749010107
 20
307.0632102308857
 10
356.2020796286229
 20
307.0740029170698
 10
356.1988072849591
 20
307.0879603258757
 10
356.1963167189667
 20
307.1020881440496
  0
LINE
  5
A46
330
1F
100
AcDbEntity
  8
3
  6
Continuous
100
AcDbLine
 10
358.4000136307079
 20
307.1587090169362
 30
0.0
 11
358.4029547039209
 21
307.1483245560315
 31
0.0
  0
LINE
  5
A47
330
1F
100
AcDbEntity
  8
3
  6
Continuous
100
AcDbLine
 10
358.3881003738694
 20
307.1705386001391
 30
0.0
 11
358.3578702988202
 21
307.1675378031935
 31
0.0
  0
LWPOLYLINE
  5
A70
330
1F
100
AcDbEntity
  8
3
  6
Continuous
100
AcDbPolyline
 90
        6
 70
   128
 43
0.0
 10
358.3881002856087
 20
307.1705386063046
 10
358.3914498586083
 20
307.1703046166791
 10
358.3945331602403
 20
307.1689750895556
 10
358.3970025667083
 20
307.1666999203757
 10
358.3985796676506
 20
307.1637356254268
 10
358.398711621811
 20
307.1633062028978
  0
LINE
  5
A72
330
1F
100
AcDbEntity
  8
3
  6
Continuous
100
AcDbLine
 10
358.3465298732388
 20
307.1674633488247
 30
0.0
 11
358.3480083948075
 21
307.1675157401066
 31
0.0
  0
LWPOLYLINE
  5
A73
330
1F
100
AcDbEntity
  8
3
  6
Continuous
100
AcDbPolyline
 90
        5
 70
   128
 43
0.0
 10
358.3480083948075
 20
307.1675157401066
 10
358.3523010381978
 20
307.1675254504345
 10
358.3553836846025
 20
307.1675323222328
 10
358.3572074955469
 20
307.1675363477008
 10
358.3578702988202
 20
307.1675378031935
  0
LINE
  5
A74
330
1F
100
AcDbEntity
  8
3
  6
Continuous
100
AcDbLine
 10
358.3753204209492
 20
307.1705386063046
 30
0.0
 11
358.374931792072
 21
307.1705668332329
 31
0.0
  0
LWPOLYLINE
  5
A75
330
1F
100
AcDbEntity
  8
3
  6
Continuous
100
AcDbPolyline
 90
        6
 70
   128
 43
0.0
 10
358.374931792072
 20
307.1705668332328
 10
358.3747583238292
 20
307.170579150034
 10
358.3739689762646
 20
307.1705841442387
 10
358.372773632051
 20
307.1705552423174
 10
358.3713152470492
 20
307.1704903945444
 10
358.3710927123888
 20
307.1704779699744
  0
LINE
  5
A76
330
1F
100
AcDbEntity
  8
3
  6
Continuous
100
AcDbLine
 10
358.3710927123888
 20
307.1704779699744
 30
0.0
 11
358.3530111087973
 21
307.1698975413507
 31
0.0
  0
LWPOLYLINE
  5
A77
330
1F
100
AcDbEntity
  8
3
  6
Continuous
100
AcDbPolyline
 90
        6
 70
   128
 43
0.0
 10
358.388100344027
 20
307.1705385971768
 10
358.3875307041394
 20
307.1705385990023
 10
358.3859648822404
 20
307.1705386008279
 10
358.3834051633147
 20
307.1705386026534
 10
358.3798552827626
 20
307.170538604479
 10
358.3753204209492
 20
307.1705386063045
  0
LWPOLYLINE
  5
A79
330
1F
100
AcDbEntity
  8
3
  6
Continuous
100
AcDbPolyline
 90
        5
 70
   128
 43
0.0
 10
358.3933330629195
 20
307.1455997270472
 10
358.393692946546
 20
307.1422593400017
 10
358.3929267845685
 20
307.13898812248
 10
358.3911211040426
 20
307.1361556627266
 10
358.3902583423924
 20
307.1353121352014
  0
LINE
  5
A7A
330
1F
100
AcDbEntity
  8
3
  6
Continuous
100
AcDbLine
 10
358.3890882415266
 20
307.160587513528
 30
0.0
 11
358.3933330629195
 21
307.1455997270472
 31
0.0
  0
LWPOLYLINE
  5
A7C
330
1F
100
AcDbEntity
  8
3
  6
Continuous
100
AcDbPolyline
 90
        8
 70
   128
 43
0.0
 10
358.402954703921
 20
307.1483245560315
 10
358.4035948280727
 20
307.1450151330369
 10
358.403674314111
 20
307.1416453116546
 10
358.4031829142802
 20
307.1383105297367
 10
358.4021423491525
 20
307.135104372678
 10
358.4005748963337
 20
307.1321208677311
 10
358.3985319008957
 20
307.1294405018957
 10
358.3968036382416
 20
307.1277508632914
  0
LINE
  5
A8A
330
1F
100
AcDbEntity
  8
3
  6
Continuous
100
AcDbLine
 10
358.3890882415266
 20
307.160587513528
 30
0.0
 11
358.358858104895
 21
307.1575867104349
 31
0.0
  0
LINE
  5
A8F
330
1F
100
AcDbEntity
  8
3
  6
Continuous
100
AcDbLine
 10
358.398711621811
 20
307.1633062028978
 30
0.0
 11
358.4000136307079
 21
307.1587090169361
 31
0.0
  0
LWPOLYLINE
  5
A90
330
1F
100
AcDbEntity
  8
3
  6
Continuous
100
AcDbPolyline
 90
        5
 70
   128
 43
0.0
 10
358.3491162154943
 20
307.1598442329209
 10
358.3504126299441
 20
307.1629415740589
 10
358.3526612001812
 20
307.1654351943112
 10
358.3556084244382
 20
307.1670439651023
 10
358.3578702988202
 20
307.1675378031935
  0
LWPOLYLINE
  5
A92
330
1F
100
AcDbEntity
  8
3
  6
Continuous
100
AcDbPolyline
 90
        5
 70
   128
 43
0.0
 10
358.3180184153458
 20
307.1684088055768
 10
358.3219678100216
 20
307.168479675711
 10
358.3259340346404
 20
307.168462745972
 10
358.3306630265142
 20
307.1683160471159
 10
358.3351969175912
 20
307.1680213739059
  0
LWPOLYLINE
  5
A97
330
1F
100
AcDbEntity
  8
3
  6
Continuous
100
AcDbPolyline
 90
        5
 70
   128
 43
0.0
 10
358.3351969175912
 20
307.1680213739059
 10
358.3389124391754
 20
307.1677470732611
 10
358.3422229357834
 20
307.1675371790919
 10
358.3446556111302
 20
307.167444855264
 10
358.3465298732388
 20
307.1674633488247
  0
LWPOLYLINE
  5
A99
330
1F
100
AcDbEntity
  8
3
  6
Continuous
100
AcDbPolyline
 90
        3
 70
   128
 43
0.0
 10
358.3173502530993
 20
307.073490712367
 10
358.3539637606378
 20
307.1042093242891
 10
358.3902583423924
 20
307.1353121352014
  0
LWPOLYLINE
  5
A9A
330
1F
100
AcDbEntity
  8
3
  6
Continuous
100
AcDbPolyline
 90
        9
 70
   128
 43
0.0
 10
358.358858104895
 20
307.1575867104349
 10
358.3550999214117
 20
307.1436292800669
 10
358.3503687456847
 20
307.1299709572522
 10
358.3445586834929
 20
307.1164107839551
 10
358.337789680525
 20
307.1033029343293
 10
358.3331970744172
 20
307.095548710796
 10
358.3282682571088
 20
307.0880037274656
 10
358.3229699711099
 20
307.0806263147871
 10
358.3173502530993
 20
307.073490712367
  0
LWPOLYLINE
  5
A9B
330
1F
100
AcDbEntity
  8
3
  6
Continuous
100
AcDbPolyline
 90
        4
 70
   128
 43
0.0
 10
358.3968036382416
 20
307.1277508632914
 10
358.3372932162727
 20
307.0770992457853
 10
358.3072114233743
 20
307.0521439440808
 10
358.2769129136821
 20
307.027452273201
  0
LWPOLYLINE
  5
A9F
330
1F
100
AcDbEntity
  8
3
  6
Continuous
100
AcDbPolyline
 90
        6
 70
   128
 43
0.0
 10
358.1841815572185
 20
307.0003999207616
 10
358.1848523998777
 20
307.0003688588861
 10
358.1854751446603
 20
307.0001174949458
 10
358.1859795770977
 20
306.9996741696173
 10
358.1863088233359
 20
306.9990888717058
 10
358.1864258086995
 20
306.9984148917648
  0
LWPOLYLINE
  5
AAB
330
1F
100
AcDbEntity
  8
3
  6
Continuous
100
AcDbPolyline
 90
        4
 70
   128
 43
0.0
 10
358.1208982489476
 20
306.9953563785903
 10
358.1222454895088
 20
306.9963612395365
 10
358.1238493477898
 20
306.996863579199
 10
358.1242769023441
 20
306.9969030369313
  0
LWPOLYLINE
  5
AAC
330
1F
100
AcDbEntity
  8
3
  6
Continuous
100
AcDbPolyline
 90
        4
 70
   128
 43
0.0
 10
358.1104114461879
 20
307.0048526639538
 10
358.1117600281566
 20
307.0058578753014
 10
358.1133652382448
 20
307.006360141771
 10
358.1137919727045
 20
307.0063994708733
  0
LWPOLYLINE
  5
AAD
330
1F
100
AcDbEntity
  8
3
  6
Continuous
100
AcDbPolyline
 90
        4
 70
   128
 43
0.0
 10
358.1017419768944
 20
306.9957626971527
 10
358.10470417219
 20
306.9988674554061
 10
358.1075906954233
 20
307.0018941087232
 10
358.1104114461879
 20
307.0048526639538
  0
LWPOLYLINE
  5
AAE
330
1F
100
AcDbEntity
  8
3
  6
Continuous
100
AcDbPolyline
 90
        4
 70
   128
 43
0.0
 10
358.1003592265664
 20
306.992314326907
 10
358.1006408148568
 20
306.9939663444138
 10
358.1014530578825
 20
306.9954320739045
 10
358.1017419768944
 20
306.9957626971527
  0
LINE
  5
AAF
330
1F
100
AcDbEntity
  8
3
  6
Continuous
100
AcDbLine
 10
358.1687275658426
 20
307.0091012213556
 30
0.0
 11
358.1137919727045
 21
307.0063994708733
 31
0.0
  0
LINE
  5
AB0
330
1F
100
AcDbEntity
  8
3
  6
Continuous
100
AcDbLine
 10
358.1692187754346
 20
306.9991132929849
 30
0.0
 11
358.1242769023441
 21
306.9969030369313
 31
0.0
  0
LINE
  5
AB2
330
1F
100
AcDbEntity
  8
3
  6
Continuous
100
AcDbLine
 10
358.1841815572184
 20
307.0003999207616
 30
0.0
 11
358.1692187754346
 21
306.9991132929849
 31
0.0
  0
LWPOLYLINE
  5
AB4
330
1F
100
AcDbEntity
  8
3
  6
Continuous
100
AcDbPolyline
 90
        7
 70
   128
 43
0.0
 10
358.2549401865986
 20
307.02262245278
 10
358.2455086743785
 20
307.0179435403095
 10
358.2358235023469
 20
307.0137445754231
 10
358.2262629720015
 20
307.0101630481564
 10
358.2165115657273
 20
307.00705482088
 10
358.2065416150355
 20
307.004419185449
 10
358.1964259553097
 20
307.0022834842514
  0
LINE
  5
AB5
330
1F
100
AcDbEntity
  8
3
  6
Continuous
100
AcDbLine
 10
358.2197135508908
 20
306.9947370277796
 30
0.0
 11
358.2549401865986
 21
307.02262245278
 31
0.0
  0
LWPOLYLINE
  5
AB6
330
1F
100
AcDbEntity
  8
3
  6
Continuous
100
AcDbPolyline
 90
       19
 70
   128
 43
0.0
 10
358.3491162154943
 20
307.1598442329209
 10
358.3455001024871
 20
307.1464506869503
 10
358.3409292213044
 20
307.1333147802172
 10
358.3354416617606
 20
307.1205346513953
 10
358.3290755136698
 20
307.1082084391583
 10
358.3222493137192
 20
307.0969991492586
 10
358.314655812288
 20
307.0862398367567
 10
358.3063512052495
 20
307.075999793012
 10
358.2973916884767
 20
307.0663483093841
 10
358.2878334578427
 20
307.0573546772326
 10
358.277681703564
 20
307.0490367468287
 10
358.2669548459252
 20
307.041397408621
 10
358.2557288486464
 20
307.0344834463808
 10
358.2440796754478
 20
307.0283416438793
 10
358.2320832900494
 20
307.023018784888
 10
358.2167611127472
 20
307.0175817980699
 10
358.2009841266666
 20
307.0134256457575
 10
358.1849177912257
 20
307.0105866721273
 10
358.1687275658426
 20
307.0091012213555
  0
LWPOLYLINE
  5
AB9
330
1F
100
AcDbEntity
  8
3
  6
Continuous
100
AcDbPolyline
 90
        6
 70
   128
 43
0.0
 10
358.2182127829741
 20
306.9714058043435
 10
358.2185361919181
 20
306.9747114864528
 10
358.2194353348819
 20
306.9780088842473
 10
358.2208347137518
 20
306.9810211691645
 10
358.2227746025324
 20
306.9838350731657
 10
358.2258796941246
 20
306.9868642407985
  0
LINE
  5
ABA
330
1F
100
AcDbEntity
  8
3
  6
Continuous
100
AcDbLine
 10
358.2179791077467
 20
306.9551010222403
 30
0.0
 11
358.2182127829741
 21
306.9714058043435
 31
0.0
  0
LWPOLYLINE
  5
AC1
330
1F
100
AcDbEntity
  8
3
  6
Continuous
100
AcDbPolyline
 90
        4
 70
   128
 43
0.0
 10
358.1103805620304
 20
306.9823204761082
 10
358.1106622681804
 20
306.983973943387
 10
358.1114752578037
 20
306.985440978432
 10
358.1117612563003
 20
306.9857683852369
  0
LWPOLYLINE
  5
AC2
330
1F
100
AcDbEntity
  8
3
  6
Continuous
100
AcDbPolyline
 90
        7
 70
   128
 43
0.0
 10
358.1013621311645
 20
306.9563653527965
 10
358.1012781733537
 20
306.9563688637813
 10
358.100951278095
 20
306.9564531287816
 10
358.1006708222121
 20
306.9566409076176
 10
358.100533209426
 20
306.9568024722323
 10
358.1003932735271
 20
306.9571070186161
 10
358.1003592265664
 20
306.9573653527965
  0
LINE
  5
AC3
330
1F
100
AcDbEntity
  8
3
  6
Continuous
100
AcDbLine
 10
358.1093790119166
 20
306.9563653527965
 30
0.0
 11
358.1013621311645
 21
306.9563653527965
 31
0.0
  0
LWPOLYLINE
  5
AC4
330
1F
100
AcDbEntity
  8
3
  6
Continuous
100
AcDbPolyline
 90
        7
 70
   128
 43
0.0
 10
358.1103805620304
 20
306.9573653527965
 10
358.1103804767788
 20
306.9573523051982
 10
358.1103198642723
 20
306.957022512167
 10
358.1101535462096
 20
306.9567313460114
 10
358.1099000854971
 20
306.9565113421665
 10
358.1095877015002
 20
306.9563873003569
 10
358.1093790119166
 20
306.9563653527965
  0
LINE
  5
AC5
330
1F
100
AcDbEntity
  8
3
  6
Continuous
100
AcDbLine
 10
358.1103805620304
 20
306.9823204761082
 30
0.0
 11
358.1103805620304
 21
306.9573653527966
 31
0.0
  0
LWPOLYLINE
  5
AC6
330
1F
100
AcDbEntity
  8
3
  6
Continuous
100
AcDbPolyline
 90
        6
 70
   128
 43
0.0
 10
358.2164510588476
 20
306.8383409660477
 10
358.2163302528425
 20
306.8376803884133
 10
358.2159976025309
 20
306.8370970356995
 10
358.215490608658
 20
306.836656669985
 10
358.2148664211018
 20
306.8364089374161
 10
358.214451168488
 20
306.8363653555805
  0
LINE
  5
AC7
330
1F
100
AcDbEntity
  8
3
  6
Continuous
100
AcDbLine
 10
358.2164510588476
 20
306.8383409660478
 30
0.0
 11
358.2167302639743
 21
306.8611580645539
 31
0.0
  0
LINE
  5
AC8
330
1F
100
AcDbEntity
  8
3
  6
Continuous
100
AcDbLine
 10
358.1964259553097
 20
306.8463653555805
 30
0.0
 11
358.2065476314367
 21
306.8463653555805
 31
0.0
  0
LWPOLYLINE
  5
AC9
330
1F
100
AcDbEntity
  8
3
  6
Continuous
100
AcDbPolyline
 90
        6
 70
   128
 43
0.0
 10
358.1884258387416
 20
306.8363653555805
 10
358.1877638101869
 20
306.8364781006144
 10
358.1871764202859
 20
306.8368036256698
 10
358.18672989769
 20
306.8373052280991
 10
358.1864745860356
 20
306.8379263484732
 10
358.1864258086995
 20
306.8383653555805
  0
LINE
  5
ACC
330
1F
100
AcDbEntity
  8
3
  6
Continuous
100
AcDbLine
 10
358.1884258387416
 20
306.8363653555806
 30
0.0
 11
358.1832164819932
 21
306.8363653555806
 31
0.0
  0
LINE
  5
ACF
330
1F
100
AcDbEntity
  8
3
  6
Continuous
100
AcDbLine
 10
358.1801841625774
 20
306.8363653555806
 30
0.0
 11
358.1832164819932
 21
306.8363653555806
 31
0.0
  0
LINE
  5
AD0
330
1F
100
AcDbEntity
  8
3
  6
Continuous
100
AcDbLine
 10
358.1884258387416
 20
306.8363653555806
 30
0.0
 11
358.2144511684879
 21
306.8363653555806
 31
0.0
  0
LWPOLYLINE
  5
AD1
330
1F
100
AcDbEntity
  8
3
  6
Continuous
100
AcDbPolyline
 90
        5
 70
   128
 43
0.0
 10
358.2065475929133
 20
306.8463653197274
 10
358.2068442555306
 20
306.8706270540318
 10
358.2071616960624
 20
306.8957315323325
 10
358.2076988132276
 20
306.9355426375752
 10
358.2082133417675
 20
306.9715511952928
  0
LINE
  5
AD2
330
1F
100
AcDbEntity
  8
3
  6
Continuous
100
AcDbLine
 10
358.2179791077467
 20
306.9551010222403
 30
0.0
 11
358.2167302639743
 21
306.8611580645541
 31
0.0
  0
LINE
  5
AD5
330
1F
100
AcDbEntity
  8
3
  6
Continuous
100
AcDbLine
 10
358.1003592265664
 20
306.9573653527966
 30
0.0
 11
358.1003592265664
 21
306.992314326907
 31
0.0
  0
LINE
  5
AD6
330
1F
100
AcDbEntity
  8
3
  6
Continuous
100
AcDbLine
 10
358.1964259553097
 20
307.0022834842514
 30
0.0
 11
358.1964259553097
 21
306.8463653555805
 31
0.0
  0
LWPOLYLINE
  5
AD7
330
1F
100
AcDbEntity
  8
3
  6
Continuous
100
AcDbPolyline
 90
        7
 70
   128
 43
0.0
 10
358.2082133417675
 20
306.9715511952928
 10
358.208698737308
 20
306.9765096855285
 10
358.2100477327992
 20
306.9814557001452
 10
358.2121470565545
 20
306.9859740029346
 10
358.2150571259547
 20
306.9901946888727
 10
358.2172480663942
 20
306.9925789636533
 10
358.2197135508908
 20
306.9947370277796
  0
LINE
  5
AD8
330
1F
100
AcDbEntity
  8
3
  6
Continuous
100
AcDbLine
 10
358.1864258086994
 20
306.8383653555806
 30
0.0
 11
358.1864258086994
 21
306.9984148917648
 31
0.0
  0
LWPOLYLINE
  5
AD9
330
1F
100
AcDbEntity
  8
3
  6
Continuous
100
AcDbPolyline
 90
        4
 70
   128
 43
0.0
 10
358.1117612563003
 20
306.9857683852369
 10
358.1148440690378
 20
306.9890028608603
 10
358.1178986955604
 20
306.9922083059053
 10
358.1208982489476
 20
306.9953563785903
  0
LINE
  5
ADA
330
1F
100
AcDbEntity
  8
3
  6
Continuous
100
AcDbLine
 10
358.2258796941245
 20
306.9868642407985
 30
0.0
 11
358.2769129136821
 21
307.0274522732011
 31
0.0
  0
LWPOLYLINE
  5
ADF
330
1F
100
AcDbEntity
  8
3
  6
Continuous
100
AcDbPolyline
 90
        9
 70
   128
 43
0.0
 10
358.0166831723404
 20
307.1663182825313
 10
358.0174408367466
 20
307.1662363195399
 10
358.0181711831628
 20
307.1660057702578
 10
358.0188464252869
 20
307.1656354060184
 10
358.0194408732801
 20
307.1651393174675
 10
358.0199319111467
 20
307.1645363784792
 10
358.0203008571677
 20
307.1638495280924
 10
358.020533674654
 20
307.1631048977867
 10
358.0206215059774
 20
307.1623308172997
  0
LWPOLYLINE
  5
AE0
330
1F
100
AcDbEntity
  8
3
  6
Continuous
100
AcDbPolyline
 90
        8
 70
   128
 43
0.0
 10
358.0138296560113
 20
307.1661066193366
 10
358.0143913570265
 20
307.1661174403879
 10
358.0149305837965
 20
307.1661362455849
 10
358.0154281676438
 20
307.1661623664323
 10
358.0158664202325
 20
307.1661948743741
 10
358.0162297623612
 20
307.1662326138035
 10
358.0165052777794
 20
307.1662742431421
 10
358.0166831723404
 20
307.1663182825313
  0
LINE
  5
AE1
330
1F
100
AcDbEntity
  8
3
  6
Continuous
100
AcDbLine
 10
358.0166831723403
 20
307.1663182825313
 30
0.0
 11
358.0179090780407
 21
307.1667421379108
 31
0.0
  0
LWPOLYLINE
  5
AE2
330
1F
100
AcDbEntity
  8
3
  6
Continuous
100
AcDbPolyline
 90
        9
 70
   128
 43
0.0
 10
358.0179090780408
 20
307.1667421379108
 10
358.0198886723795
 20
307.1673701277422
 10
358.0221157994328
 20
307.1679959247904
 10
358.0250634215977
 20
307.1687279009545
 10
358.0284017389655
 20
307.1694543158618
 10
358.0308973081043
 20
307.1699371048282
 10
358.0322376902088
 20
307.1701764653183
 10
358.0336488477068
 20
307.170413366824
 10
358.0368025889387
 20
307.1708826027497
  0
LWPOLYLINE
  5
AE8
330
1F
100
AcDbEntity
  8
3
  6
Continuous
100
AcDbPolyline
 90
        9
 70
   128
 43
0.0
 10
358.040196638388
 20
307.1698869675712
 10
358.0399814053186
 20
307.1699023279621
 10
358.0397665131721
 20
307.169930214754
 10
358.0395526528058
 20
307.1699705382933
 10
358.0393405117606
 20
307.1700231689438
 10
358.0391307720494
 20
307.1700879375031
 10
358.0389241079654
 20
307.1701646357464
 10
358.0387211839139
 20
307.1702530170962
 10
358.0385226522761
 20
307.170352797415
  0
LWPOLYLINE
  5
AE9
330
1F
100
AcDbEntity
  8
3
  6
Continuous
100
AcDbPolyline
 90
        9
 70
   128
 43
0.0
 10
358.0369349947116
 20
307.1709022792164
 10
358.037141782801
 20
307.1708883683887
 10
358.0373478294335
 20
307.1708584073816
 10
358.0375523039863
 20
307.1708125169752
 10
358.0377543821746
 20
307.1707508821643
 10
358.0379532493735
 20
307.1706737514135
 10
358.0381481039026
 20
307.170581435655
 10
358.0383381602575
 20
307.1704743070352
 10
358.0385226522761
 20
307.170352797415
  0
LINE
  5
AEA
330
1F
100
AcDbEntity
  8
3
  6
Continuous
100
AcDbLine
 10
358.0368025889387
 20
307.1708826027497
 30
0.0
 11
358.0369349947115
 21
307.1709022792164
 31
0.0
  0
LINE
  5
AF2
330
1F
100
AcDbEntity
  8
3
  6
Continuous
100
AcDbLine
 10
358.0079506896263
 20
307.1563653555805
 30
0.0
 11
358.0100859302874
 21
307.1563653555805
 31
0.0
  0
LWPOLYLINE
  5
AF4
330
1F
100
AcDbEntity
  8
3
  6
Continuous
100
AcDbPolyline
 90
        5
 70
   128
 43
0.0
 10
358.0100859302874
 20
307.1563653555805
 10
358.0108544526065
 20
307.1563779949357
 10
358.011719645734
 20
307.1564150019284
 10
358.012607421072
 20
307.1564698121575
 10
358.0135720986431
 20
307.1565426333525
  0
LWPOLYLINE
  5
AF8
330
1F
100
AcDbEntity
  8
3
  6
Continuous
100
AcDbPolyline
 90
        5
 70
   128
 43
0.0
 10
358.014094417079
 20
307.1565638018975
 10
358.017110520553
 20
307.156754708569
 10
358.0199361853003
 20
307.1569801682992
 10
358.0223040166072
 20
307.1572361466488
 10
358.024357233988
 20
307.1575962524586
  0
LWPOLYLINE
  5
AFB
330
1F
100
AcDbEntity
  8
3
  6
Continuous
100
AcDbPolyline
 90
        6
 70
   128
 43
0.0
 10
358.024357233988
 20
307.1575962524586
 10
358.0264563698671
 20
307.1577846285846
 10
358.0287540271382
 20
307.157971240327
 10
358.0311137303355
 20
307.1581380283975
 10
358.0335525415609
 20
307.1582806968872
 10
358.0360260355512
 20
307.1583917149425
  0
LINE
  5
AFC
330
1F
100
AcDbEntity
  8
3
  6
Continuous
100
AcDbLine
 10
358.0246345751981
 20
307.1577673914512
 30
0.0
 11
358.024357233988
 21
307.1575962524586
 31
0.0
  0
LWPOLYLINE
  5
AFD
330
1F
100
AcDbEntity
  8
3
  6
Continuous
100
AcDbPolyline
 90
        9
 70
   128
 43
0.0
 10
358.0246345751981
 20
307.1577673914512
 10
358.0238758278243
 20
307.1578491261937
 10
358.0231415649817
 20
307.158077611456
 10
358.0224596862882
 20
307.1584441655356
 10
358.0218561009336
 20
307.1589348605604
 10
358.0213537432131
 20
307.1595310517033
 10
358.0209717010987
 20
307.1602100856252
 10
358.0207244909576
 20
307.1609461612285
 10
358.0206215059774
 20
307.1617113100163
  0
LINE
  5
AFF
330
1F
100
AcDbEntity
  8
3
  6
Continuous
100
AcDbLine
 10
358.0360260355512
 20
307.1583917149426
 30
0.0
 11
358.0413069144963
 21
307.1585958876901
 31
0.0
  0
LWPOLYLINE
  5
B01
330
1F
100
AcDbEntity
  8
3
  6
Continuous
100
AcDbPolyline
 90
        4
 70
   128
 43
0.0
 10
358.0256650284027
 20
307.1586502478596
 10
358.0251468726779
 20
307.1581824130677
 10
358.0248899487496
 20
307.1579682640413
 10
358.0246345751981
 20
307.1577673914512
  0
LWPOLYLINE
  5
B02
330
1F
100
AcDbEntity
  8
3
  6
Continuous
100
AcDbPolyline
 90
        6
 70
   128
 43
0.0
 10
358.0098599223622
 20
307.1278231767386
 10
358.0098293002068
 20
307.1274836257308
 10
358.0096878853133
 20
307.1271733636379
 10
358.0094520934975
 20
307.1269288214828
 10
358.0091508120228
 20
307.1267783684462
 10
358.0088649009273
 20
307.1267362051779
  0
LINE
  5
B03
330
1F
100
AcDbEntity
  8
3
  6
Continuous
100
AcDbLine
 10
358.0083396335924
 20
307.1471495675003
 30
0.0
 11
358.0098599223621
 21
307.1278231767386
 31
0.0
  0
LWPOLYLINE
  5
B08
330
1F
100
AcDbEntity
  8
3
  6
Continuous
100
AcDbPolyline
 90
        5
 70
   128
 43
0.0
 10
358.040196638388
 20
307.1698869675712
 10
358.03611938624
 20
307.1671188875372
 10
358.0323381326567
 20
307.1643223041618
 10
358.0288512967838
 20
307.1614973315155
 10
358.0256650284027
 20
307.1586502478596
  0
LINE
  5
B09
330
1F
100
AcDbEntity
  8
3
  6
Continuous
100
AcDbLine
 10
357.9264311186856
 20
307.1677006350119
 30
0.0
 11
357.9251184116919
 21
307.1678931397104
 31
0.0
  0
LWPOLYLINE
  5
B0A
330
1F
100
AcDbEntity
  8
3
  6
Continuous
100
AcDbPolyline
 90
        6
 70
   128
 43
0.0
 10
357.9381698540938
 20
307.1709848701844
 10
357.9360056754746
 20
307.1703171510608
 10
357.9339347091195
 20
307.1696483855246
 10
357.9319581211497
 20
307.1689788276668
 10
357.9300760299713
 20
307.168308388213
 10
357.9285382616847
 20
307.1677329890286
  0
LWPOLYLINE
  5
B0B
330
1F
100
AcDbEntity
  8
3
  6
Continuous
100
AcDbPolyline
 90
        3
 70
   128
 43
0.0
 10
357.9264311186856
 20
307.1677006350118
 10
357.9271219469376
 20
307.1677112418885
 10
357.9285382616847
 20
307.1677329890286
  0
LWPOLYLINE
  5
B0C
330
1F
100
AcDbEntity
  8
3
  6
Continuous
100
AcDbPolyline
 90
        6
 70
   128
 43
0.0
 10
357.9778462721569
 20
307.1463653555805
 10
357.9780117764071
 20
307.1463371697582
 10
357.9781586213124
 20
307.1462557899348
 10
357.97827025081
 20
307.146130391253
 10
357.9783340793919
 20
307.1459751120946
 10
357.9783447348201
 20
307.1459045661665
  0
LINE
  5
B0D
330
1F
100
AcDbEntity
  8
3
  6
Continuous
100
AcDbLine
 10
357.9883394306343
 20
307.1463653555805
 30
0.0
 11
357.9983703757315
 21
307.1463653555805
 31
0.0
  0
LWPOLYLINE
  5
B0E
330
1F
100
AcDbEntity
  8
3
  6
Continuous
100
AcDbPolyline
 90
        6
 70
   128
 43
0.0
 10
358.0008401361618
 20
307.1267362051779
 10
358.0005109152629
 20
307.1267924339413
 10
358.0002188362104
 20
307.1269542744728
 10
357.9999949281024
 20
307.1272044691669
 10
357.9998644200617
 20
307.1275171299832
 10
357.9998412451915
 20
307.1276671934724
  0
LINE
  5
B0F
330
1F
100
AcDbEntity
  8
3
  6
Continuous
100
AcDbLine
 10
357.97834473482
 20
307.1459045661665
 30
0.0
 11
357.9799752760735
 21
307.1251765943305
 31
0.0
  0
LINE
  5
B10
330
1F
100
AcDbEntity
  8
3
  6
Continuous
100
AcDbLine
 10
357.9883394306343
 20
307.1463653555805
 30
0.0
 11
357.9899448639798
 21
307.1259565688395
 31
0.0
  0
LINE
  5
B11
330
1F
100
AcDbEntity
  8
3
  6
Continuous
100
AcDbLine
 10
357.9983703757315
 20
307.1463653555805
 30
0.0
 11
357.9998412451915
 21
307.1276671934724
 31
0.0
  0
LWPOLYLINE
  5
B12
330
1F
100
AcDbEntity
  8
3
  6
Continuous
100
AcDbPolyline
 90
        7
 70
   128
 43
0.0
 10
357.9588321981871
 20
307.1553653555805
 10
357.9588490237669
 20
307.1555475103657
 10
357.9589649161508
 20
307.1558618664761
 10
357.9591782046791
 20
307.1561201846663
 10
357.9594657222712
 20
307.1562944071599
 10
357.9597963178568
 20
307.1563645117202
 10
357.9598376013744
 20
307.1563653555805
  0
LINE
  5
B13
330
1F
100
AcDbEntity
  8
3
  6
Continuous
100
AcDbLine
 10
357.9588321981871
 20
307.1553653555806
 30
0.0
 11
357.9588321981871
 21
307.1473653555805
 31
0.0
  0
LWPOLYLINE
  5
B14
330
1F
100
AcDbEntity
  8
3
  6
Continuous
100
AcDbPolyline
 90
        7
 70
   128
 43
0.0
 10
357.9598376013744
 20
307.1463653555805
 10
357.9596778982041
 20
307.1463780583826
 10
357.9593567671306
 20
307.1464871727866
 10
357.9590902962002
 20
307.1466964498721
 10
357.9589093350114
 20
307.1469812749481
 10
357.9588490237669
 20
307.1471832007953
 10
357.9588321981871
 20
307.1473653555805
  0
LINE
  5
B18
330
1F
100
AcDbEntity
  8
3
  6
Continuous
100
AcDbLine
 10
357.9433797790908
 20
307.139037368761
 30
0.0
 11
357.9561047576084
 21
307.1383244347729
 31
0.0
  0
LINE
  5
B1B
330
1F
100
AcDbEntity
  8
3
  6
Continuous
100
AcDbLine
 10
357.9598376013744
 20
307.1563653555805
 30
0.0
 11
357.9983703757315
 21
307.1563653555805
 31
0.0
  0
LINE
  5
B1C
330
1F
100
AcDbEntity
  8
3
  6
Continuous
100
AcDbLine
 10
357.9598376013744
 20
307.1463653555805
 30
0.0
 11
357.9778462721568
 21
307.1463653555805
 31
0.0
  0
LWPOLYLINE
  5
B1D
330
1F
100
AcDbEntity
  8
3
  6
Continuous
100
AcDbPolyline
 90
        3
 70
   128
 43
0.0
 10
357.9791484499534
 20
307.1356874774468
 10
357.9682180717803
 20
307.1360880882146
 10
357.9556537904613
 20
307.1363266467084
  0
LINE
  5
B1E
330
1F
100
AcDbEntity
  8
3
  6
Continuous
100
AcDbLine
 10
357.9561047576084
 20
307.1383244347729
 30
0.0
 11
357.9789939178429
 21
307.1376519400007
 31
0.0
  0
LINE
  5
B1F
330
1F
100
AcDbEntity
  8
3
  6
Continuous
100
AcDbLine
 10
358.0008401361618
 20
307.1267362051779
 30
0.0
 11
358.0088649009272
 21
307.1267362051779
 31
0.0
  0
LWPOLYLINE
  5
B20
330
1F
100
AcDbEntity
  8
3
  6
Continuous
100
AcDbPolyline
 90
        6
 70
   128
 43
0.0
 10
357.9983703757315
 20
307.1563653555805
 10
358.0016804632638
 20
307.1558016387124
 10
358.0046173636115
 20
307.1541740409906
 10
358.0068499548137
 20
307.1516660654885
 10
358.0081265259665
 20
307.1485604812478
 10
358.0083396335924
 20
307.1471495675003
  0
LINE
  5
B21
330
1F
100
AcDbEntity
  8
3
  6
Continuous
100
AcDbLine
 10
357.9983703757315
 20
307.1563653555805
 30
0.0
 11
358.0079506896263
 21
307.1563653555805
 31
0.0
  0
LWPOLYLINE
  5
B22
330
1F
100
AcDbEntity
  8
3
  6
Continuous
100
AcDbPolyline
 90
        6
 70
   128
 43
0.0
 10
358.0368025889387
 20
307.1708826027497
 10
358.036588978582
 20
307.1708827756788
 10
358.0119466945321
 20
307.1709039267248
 10
357.9873089123604
 20
307.1709277174605
 10
357.9627362894623
 20
307.170954514962
 10
357.9381698540938
 20
307.1709848701844
  0
LWPOLYLINE
  5
B23
330
1F
100
AcDbEntity
  8
3
  6
Continuous
100
AcDbPolyline
 90
        6
 70
   128
 43
0.0
 10
358.0111243305637
 20
307.0999945059832
 10
358.0114532694553
 20
307.0999383463052
 10
358.0117451014532
 20
307.099776641481
 10
358.0119686835104
 20
307.0995267561791
 10
358.0120990057868
 20
307.0992145198021
 10
358.0121221995595
 20
307.0990643790731
  0
LWPOLYLINE
  5
B24
330
1F
100
AcDbEntity
  8
3
  6
Continuous
100
AcDbPolyline
 90
        4
 70
   128
 43
0.0
 10
358.0509475742337
 20
306.9922609711343
 10
358.0519534144323
 20
306.9909182291949
 10
358.0524578039809
 20
306.9893180145211
 10
358.0525040500321
 20
306.9886405732946
  0
LWPOLYLINE
  5
B27
330
1F
100
AcDbEntity
  8
3
  6
Continuous
100
AcDbPolyline
 90
        4
 70
   128
 43
0.0
 10
358.0379990687367
 20
307.0027064698811
 10
358.0396556478659
 20
307.0024080249788
 10
358.0411200460643
 20
307.0015780027895
 10
358.0414040769502
 20
307.0013277491905
  0
LWPOLYLINE
  5
B28
330
1F
100
AcDbEntity
  8
3
  6
Continuous
100
AcDbPolyline
 90
        3
 70
   128
 43
0.0
 10
358.0317204687929
 20
306.9934115942805
 10
358.0323431060968
 20
306.9931585266021
 10
358.032834775958
 20
306.9927284691596
  0
LWPOLYLINE
  5
B2A
330
1F
100
AcDbEntity
  8
3
  6
Continuous
100
AcDbPolyline
 90
       10
 70
   128
 43
0.0
 10
358.0379990687367
 20
307.0027064698811
 10
358.035223733553
 20
307.0029278035673
 10
358.0325056209519
 20
307.0035305786123
 10
358.0293679625118
 20
307.0047590034702
 10
358.0264790059558
 20
307.0064933210795
 10
358.0239248470125
 20
307.0086910774457
 10
358.0217728241812
 20
307.0112838863593
 10
358.0200901314541
 20
307.0142031799891
 10
358.0189176677055
 20
307.0173621447631
 10
358.0182522465561
 20
307.0211371222249
  0
LWPOLYLINE
  5
B2B
330
1F
100
AcDbEntity
  8
3
  6
Continuous
100
AcDbPolyline
 90
        9
 70
   128
 43
0.0
 10
358.0317204687929
 20
306.9934115942805
 10
358.0296630463035
 20
306.993943091871
 10
358.0249565592761
 20
306.9957857288768
 10
358.0206231250491
 20
306.9983872049582
 10
358.0167918874625
 20
307.0016838388465
 10
358.013563853856
 20
307.005573051378
 10
358.0110398149159
 20
307.0099519912186
 10
358.0092811191827
 20
307.0146904377049
 10
358.0082829865272
 20
307.0203529079417
  0
LWPOLYLINE
  5
B2E
330
1F
100
AcDbEntity
  8
3
  6
Continuous
100
AcDbPolyline
 90
        4
 70
   128
 43
0.0
 10
358.0414040769502
 20
307.0013277491905
 10
358.0445095794561
 20
306.9983761015618
 10
358.0477730951953
 20
306.9952754437034
 10
358.0509475742337
 20
306.9922609711343
  0
LWPOLYLINE
  5
B2F
330
1F
100
AcDbEntity
  8
3
  6
Continuous
100
AcDbPolyline
 90
        3
 70
   128
 43
0.0
 10
358.0121221995595
 20
307.0990643790731
 10
358.0132957729823
 20
307.0841455266653
 10
358.0182522465561
 20
307.0211371222249
  0
LWPOLYLINE
  5
B30
330
1F
100
AcDbEntity
  8
3
  6
Continuous
100
AcDbPolyline
 90
        6
 70
   128
 43
0.0
 10
358.0021036573292
 20
307.0989066731338
 10
358.0021343120299
 20
307.0992463429149
 10
358.002275770241
 20
307.0995567088232
 10
358.0025117332037
 20
307.0998015314927
 10
358.0028133930078
 20
307.0999522701761
 10
358.0030995652792
 20
307.0999945059832
  0
LINE
  5
B31
330
1F
100
AcDbEntity
  8
3
  6
Continuous
100
AcDbLine
 10
357.9561047576084
 20
307.0644062763881
 30
0.0
 11
357.9433797790908
 21
307.0636933424
 31
0.0
  0
LWPOLYLINE
  5
B34
330
1F
100
AcDbEntity
  8
3
  6
Continuous
100
AcDbPolyline
 90
        4
 70
   128
 43
0.0
 10
357.9556537904613
 20
307.0664040644526
 10
357.9695192885247
 20
307.0666798970543
 10
357.9833819086051
 20
307.0672269876022
 10
357.9845283954538
 20
307.0672958003844
  0
LWPOLYLINE
  5
B35
330
1F
100
AcDbEntity
  8
3
  6
Continuous
100
AcDbPolyline
 90
        3
 70
   128
 43
0.0
 10
357.9846830633024
 20
307.0653296087547
 10
357.9838845028423
 20
307.0652789141425
 10
357.9561047576084
 20
307.0644062763881
  0
LWPOLYLINE
  5
B36
330
1F
100
AcDbEntity
  8
3
  6
Continuous
100
AcDbPolyline
 90
        5
 70
   128
 43
0.0
 10
357.9902352867353
 20
306.9947477441177
 10
357.9901748067598
 20
306.994078928443
 10
357.9898963547753
 20
306.9934678338938
 10
357.9894313223761
 20
306.9929833535121
 10
357.9893310577002
 20
306.9929137712084
  0
LWPOLYLINE
  5
B37
330
1F
100
AcDbEntity
  8
3
  6
Continuous
100
AcDbPolyline
 90
        4
 70
   128
 43
0.0
 10
357.9820802689535
 20
307.0984172257021
 10
357.9832833755438
 20
307.0831229276741
 10
357.9867950832617
 20
307.0384808744773
 10
357.9902352867353
 20
306.9947477441177
  0
LINE
  5
B38
330
1F
100
AcDbEntity
  8
3
  6
Continuous
100
AcDbLine
 10
358.0111243305637
 20
307.0999945059832
 30
0.0
 11
358.0030995652792
 21
307.0999945059832
 31
0.0
  0
LWPOLYLINE
  5
B39
330
1F
100
AcDbEntity
  8
3
  6
Continuous
100
AcDbPolyline
 90
        3
 70
   128
 43
0.0
 10
358.0021036573292
 20
307.0989066731338
 10
358.0033265403325
 20
307.0833609773387
 10
358.0082829865272
 20
307.0203529079417
  0
LWPOLYLINE
  5
B3B
330
1F
100
AcDbEntity
  8
3
  6
Continuous
100
AcDbPolyline
 90
       18
 70
   128
 43
0.0
 10
358.0098599223622
 20
307.1278231767386
 10
358.0099092957695
 20
307.1273488632991
 10
358.009993489325
 20
307.1265304109346
 10
358.0101175994946
 20
307.1253024334249
 10
358.0102711130814
 20
307.1237452000441
 10
358.0104483909638
 20
307.121889045772
 10
358.0106408449473
 20
307.1197973798539
 10
358.0108461628299
 20
307.1174640385409
 10
358.0110514958718
 20
307.1150124795324
 10
358.0112454443025
 20
307.1125664352805
 10
358.0114270321878
 20
307.1101442177231
 10
358.0115914928895
 20
307.1078156049225
 10
358.0117360944553
 20
307.1056449520934
 10
358.0118582462946
 20
307.1037016315826
 10
358.0119577455418
 20
307.1020326805496
 10
358.0120339022714
 20
307.1006939726076
 10
358.0120875591987
 20
307.0997142560219
 10
358.0121221995595
 20
307.0990643790731
  0
LWPOLYLINE
  5
B3D
330
1F
100
AcDbEntity
  8
3
  6
Continuous
100
AcDbPolyline
 90
       11
 70
   128
 43
0.0
 10
357.979975099013
 20
307.1251783028678
 10
357.9800460897565
 20
307.1243018892707
 10
357.9803293674268
 20
307.1207961794077
 10
357.9806110616209
 20
307.1172903418515
 10
357.9808902360889
 20
307.113784302601
 10
357.9811662951117
 20
307.1102780165729
 10
357.981439180602
 20
307.1067714821613
 10
357.9817094061467
 20
307.1032647418983
 10
357.9818950793447
 20
307.1008410255767
 10
357.9819877109739
 20
307.0996291516723
 10
357.9820802664782
 20
307.0984172719459
  0
LWPOLYLINE
  5
B3E
330
1F
100
AcDbEntity
  8
3
  6
Continuous
100
AcDbPolyline
 90
       11
 70
   128
 43
0.0
 10
357.9899446868304
 20
307.1259582852996
 10
357.990014475736
 20
307.1250968490522
 10
357.9902929476803
 20
307.121651048711
 10
357.9905698643121
 20
307.1182051229339
 10
357.9908443584305
 20
307.1147590032089
 10
357.9911158938744
 20
307.1113126490085
 10
357.9913843887522
 20
307.1078660566126
 10
357.9916502481705
 20
307.1044192600356
 10
357.9918500260302
 20
307.1018125409243
 10
357.9919496536774
 20
307.1005091612816
 10
357.9920491848958
 20
307.0992057742633
  0
LWPOLYLINE
  5
B40
330
1F
100
AcDbEntity
  8
3
  6
Continuous
100
AcDbPolyline
 90
        6
 70
   128
 43
0.0
 10
357.9118526549941
 20
307.1626513277272
 10
357.9118454315589
 20
307.162664543198
 10
357.9112710153903
 20
307.1639333025782
 10
357.9110195404326
 20
307.1649308951992
 10
357.9111500099469
 20
307.165982646445
 10
357.9112158920662
 20
307.1660816177153
  0
LWPOLYLINE
  5
B41
330
1F
100
AcDbEntity
  8
3
  6
Continuous
100
AcDbPolyline
 90
        3
 70
   128
 43
0.0
 10
357.9112158920662
 20
307.1660816177153
 10
357.911369539482
 20
307.1662313742779
 10
357.9115608315015
 20
307.1663319941635
  0
LWPOLYLINE
  5
B42
330
1F
100
AcDbEntity
  8
3
  6
Continuous
100
AcDbPolyline
 90
        4
 70
   128
 43
0.0
 10
357.9115608315015
 20
307.1663319941635
 10
357.9140188820125
 20
307.167174553706
 10
357.9168879251353
 20
307.1680762647567
 10
357.9192201375822
 20
307.168759705226
  0
LWPOLYLINE
  5
B45
330
1F
100
AcDbEntity
  8
3
  6
Continuous
100
AcDbPolyline
 90
        5
 70
   128
 43
0.0
 10
357.9140147739037
 20
307.1648845361066
 10
357.9150504505299
 20
307.1649186099274
 10
357.9171128505246
 20
307.1649636661734
 10
357.9178239075342
 20
307.1649742216312
 10
357.9185365960928
 20
307.1649832138984
  0
LWPOLYLINE
  5
B46
330
1F
100
AcDbEntity
  8
3
  6
Continuous
100
AcDbPolyline
 90
        9
 70
   128
 43
0.0
 10
357.9115608315015
 20
307.1663319941635
 10
357.9117751925544
 20
307.16602009998
 10
357.9120251053312
 20
307.1657380491657
 10
357.9123065492938
 20
307.1654903792879
 10
357.9126149966377
 20
307.1652810748016
 10
357.9129454851342
 20
307.1651135029483
 10
357.9132926979619
 20
307.1649903595848
 10
357.9136510492422
 20
307.1649136258126
 10
357.9140147739037
 20
307.1648845361066
  0
LWPOLYLINE
  5
B49
330
1F
100
AcDbEntity
  8
3
  6
Continuous
100
AcDbPolyline
 90
        3
 70
   128
 43
0.0
 10
357.8754336473427
 20
307.1643150199848
 10
357.8760561274009
 20
307.164060451322
 10
357.8763156890843
 20
307.1638681424388
  0
LWPOLYLINE
  5
B4A
330
1F
100
AcDbEntity
  8
3
  6
Continuous
100
AcDbPolyline
 90
        8
 70
   128
 43
0.0
 10
357.9192201371678
 20
307.1687597052869
 10
357.9116559219073
 20
307.1698698644669
 10
357.9048877480124
 20
307.1708514608058
 10
357.8989298855602
 20
307.1716924519311
 10
357.8937870655989
 20
307.1723833067868
 10
357.8887230081039
 20
307.172998321187
 10
357.8848308673264
 20
307.1733756238876
 10
357.8821232393837
 20
307.1735058924758
  0
LINE
  5
B4B
330
1F
100
AcDbEntity
  8
3
  6
Continuous
100
AcDbLine
 10
357.8970882951152
 20
307.1463653555805
 30
0.0
 11
357.9230256752242
 21
307.1463653555805
 31
0.0
  0
LWPOLYLINE
  5
B4C
330
1F
100
AcDbEntity
  8
3
  6
Continuous
100
AcDbPolyline
 90
        7
 70
   128
 43
0.0
 10
357.9240310784114
 20
307.1473653555805
 10
357.9240258962063
 20
307.1472639702502
 10
357.9239365969629
 20
307.1469421903436
 10
357.9237458627441
 20
307.1466676442624
 10
357.9234741724135
 20
307.1464704028897
 10
357.9232768920816
 20
307.1463970897098
 10
357.9230256752242
 20
307.1463653555805
  0
LINE
  5
B4D
330
1F
100
AcDbEntity
  8
3
  6
Continuous
100
AcDbLine
 10
357.9240310784114
 20
307.1473653555805
 30
0.0
 11
357.9240310784114
 21
307.1553653555806
 31
0.0
  0
LWPOLYLINE
  5
B4E
330
1F
100
AcDbEntity
  8
3
  6
Continuous
100
AcDbPolyline
 90
        7
 70
   128
 43
0.0
 10
357.9230256752242
 20
307.1563653555805
 10
357.923065578741
 20
307.1563645672146
 10
357.9232768920816
 20
307.1563336214512
 10
357.9235856426507
 20
307.1561958462187
 10
357.9238313308082
 20
307.1559635183874
 10
357.923985256599
 20
307.1556637652783
 10
357.9240310784114
 20
307.1553653555805
  0
LINE
  5
B4F
330
1F
100
AcDbEntity
  8
3
  6
Continuous
100
AcDbLine
 10
357.9042970921853
 20
307.1563653555805
 30
0.0
 11
357.9230256752242
 21
307.1563653555805
 31
0.0
  0
LWPOLYLINE
  5
B50
330
1F
100
AcDbEntity
  8
3
  6
Continuous
100
AcDbPolyline
 90
        4
 70
   128
 43
0.0
 10
357.9042970921853
 20
307.1563653555805
 10
357.9009867711822
 20
307.1569291064516
 10
357.8980496629065
 20
307.1585568207595
 10
357.8977043809063
 20
307.1588460373073
  0
LINE
  5
B51
330
1F
100
AcDbEntity
  8
3
  6
Continuous
100
AcDbLine
 10
357.8957670330328
 20
307.1468612259841
 30
0.0
 11
357.8934985234096
 21
307.1488446483761
 31
0.0
  0
LWPOLYLINE
  5
B52
330
1F
100
AcDbEntity
  8
3
  6
Continuous
100
AcDbPolyline
 90
        4
 70
   128
 43
0.0
 10
357.8970882951152
 20
307.1463653555805
 10
357.8964235689009
 20
307.1464785064914
 10
357.8958337791918
 20
307.1468053787678
 10
357.8957670330328
 20
307.1468612259841
  0
LWPOLYLINE
  5
B54
330
1F
100
AcDbEntity
  8
3
  6
Continuous
100
AcDbPolyline
 90
        4
 70
   128
 43
0.0
 10
357.921556770185
 20
307.1563653555805
 10
357.9180927050814
 20
307.1569695520117
 10
357.9150189721613
 20
307.1587325993986
 10
357.9131815419062
 20
307.1607528067937
  0
LINE
  5
B5A
330
1F
100
AcDbEntity
  8
3
  6
Continuous
100
AcDbLine
 10
357.8977043809063
 20
307.1588460373073
 30
0.0
 11
357.8812821647018
 21
307.1732543228333
 31
0.0
  0
LWPOLYLINE
  5
B5B
330
1F
100
AcDbEntity
  8
3
  6
Continuous
100
AcDbPolyline
 90
        4
 70
   128
 43
0.0
 10
357.8934985234326
 20
307.148844648356
 10
357.884855357656
 20
307.1564016290342
 10
357.8805337792238
 20
307.16018012447
 10
357.8763156890843
 20
307.1638681424388
  0
LINE
  5
B5C
330
1F
100
AcDbEntity
  8
3
  6
Continuous
100
AcDbLine
 10
357.9131815419061
 20
307.1607528067937
 30
0.0
 11
357.9118526549941
 21
307.1626513277273
 31
0.0
  0
LWPOLYLINE
  5
B5F
330
1F
100
AcDbEntity
  8
3
  6
Continuous
100
AcDbPolyline
 90
        6
 70
   128
 43
0.0
 10
357.8114316284179
 20
307.179351024686
 10
357.8115443725601
 20
307.1800130473663
 10
357.8118698946863
 20
307.1806004320412
 10
357.8123714931776
 20
307.1810469522662
 10
357.8129926116198
 20
307.1813022652684
 10
357.8134441861812
 20
307.1813510051066
  0
LINE
  5
B60
330
1F
100
AcDbEntity
  8
3
  6
Continuous
100
AcDbLine
 10
357.8114316284179
 20
307.1713568522573
 30
0.0
 11
357.8114316284179
 21
307.1793510246861
 31
0.0
  0
LINE
  5
B63
330
1F
100
AcDbEntity
  8
3
  6
Continuous
100
AcDbLine
 10
357.8114316284179
 20
307.1685300262159
 30
0.0
 11
357.8114316284179
 21
307.1713568522573
 31
0.0
  0
LWPOLYLINE
  5
B64
330
1F
100
AcDbEntity
  8
3
  6
Continuous
100
AcDbPolyline
 90
        9
 70
   128
 43
0.0
 10
357.8394316284179
 20
307.134328858644
 10
357.8394700578571
 20
307.1347186077608
 10
357.8395838693529
 20
307.1350933790376
 10
357.8397686891933
 20
307.1354387702245
 10
357.8400174148555
 20
307.1357415081317
 10
357.8403204879519
 20
307.1359899587114
 10
357.8406662615532
 20
307.136174574147
 10
357.8410414477739
 20
307.136288259771
 10
357.8414316284179
 20
307.1363266467084
  0
LINE
  5
B67
330
1F
100
AcDbEntity
  8
3
  6
Continuous
100
AcDbLine
 10
357.8114316284179
 20
307.1360063535725
 30
0.0
 11
357.8374182875891
 21
307.1360309320681
 31
0.0
  0
LINE
  5
B6E
330
1F
100
AcDbEntity
  8
3
  6
Continuous
100
AcDbLine
 10
357.8374182875891
 20
307.1360309320681
 30
0.0
 11
357.8374182875891
 21
307.14031325877
 31
0.0
  0
LINE
  5
B70
330
1F
100
AcDbEntity
  8
3
  6
Continuous
100
AcDbLine
 10
357.8114316284179
 20
307.1413653555806
 30
0.0
 11
357.8114316284179
 21
307.1463653555805
 31
0.0
  0
LINE
  5
B71
330
1F
100
AcDbEntity
  8
3
  6
Continuous
100
AcDbLine
 10
357.8114316284179
 20
307.1360063535725
 30
0.0
 11
357.8114316284179
 21
307.1413653555806
 31
0.0
  0
LINE
  5
B72
330
1F
100
AcDbEntity
  8
3
  6
Continuous
100
AcDbLine
 10
357.8114316284179
 20
307.1463653555805
 30
0.0
 11
357.8114316284179
 21
307.1563678385341
 31
0.0
  0
LINE
  5
B73
330
1F
100
AcDbEntity
  8
3
  6
Continuous
100
AcDbLine
 10
357.8114316284179
 20
307.1563678385341
 30
0.0
 11
357.8114316284179
 21
307.15788950937
 31
0.0
  0
LWPOLYLINE
  5
B74
330
1F
100
AcDbEntity
  8
3
  6
Continuous
100
AcDbPolyline
 90
        9
 70
   128
 43
0.0
 10
357.8374316284179
 20
307.126126446239
 10
357.837821809062
 20
307.1261645084321
 10
357.8381969952827
 20
307.1262772323028
 10
357.8385427688839
 20
307.1264602859357
 10
357.8388458419803
 20
307.1267066346826
 10
357.8390945676425
 20
307.1270068114992
 10
357.839279387483
 20
307.1273492807587
 10
357.8393931989787
 20
307.1277208815597
 10
357.8394316284179
 20
307.1281073334917
  0
LINE
  5
B75
330
1F
100
AcDbEntity
  8
3
  6
Continuous
100
AcDbLine
 10
357.8374316284179
 20
307.126126446239
 30
0.0
 11
357.8114316284179
 21
307.1261088796975
 31
0.0
  0
LWPOLYLINE
  5
B76
330
1F
100
AcDbEntity
  8
3
  6
Continuous
100
AcDbPolyline
 90
        6
 70
   128
 43
0.0
 10
357.8374316284179
 20
307.126126446239
 10
357.8374305119918
 20
307.1262748399059
 10
357.8374261317252
 20
307.127551486354
 10
357.8374223712474
 20
307.1297840806632
 10
357.8374196544516
 20
307.132720915785
 10
357.8374182875891
 20
307.136030932068
  0
LINE
  5
B77
330
1F
100
AcDbEntity
  8
3
  6
Continuous
100
AcDbLine
 10
357.8114316284179
 20
307.1261088796975
 30
0.0
 11
357.8114316284179
 21
307.1360063535725
 31
0.0
  0
LINE
  5
B78
330
1F
100
AcDbEntity
  8
3
  6
Continuous
100
AcDbLine
 10
357.8114316284179
 20
307.15788950937
 30
0.0
 11
357.8114316284179
 21
307.1678779642446
 31
0.0
  0
LWPOLYLINE
  5
B79
330
1F
100
AcDbEntity
  8
3
  6
Continuous
100
AcDbPolyline
 90
        5
 70
   128
 43
0.0
 10
357.8812821647018
 20
307.1732543228333
 10
357.8641922401368
 20
307.1767547638964
 10
357.8471214479391
 20
307.1792640112144
 10
357.8297653067213
 20
307.1808092451967
 10
357.8134441861812
 20
307.1813510051066
  0
LWPOLYLINE
  5
B7A
330
1F
100
AcDbEntity
  8
3
  6
Continuous
100
AcDbPolyline
 90
        5
 70
   128
 43
0.0
 10
357.8754336473427
 20
307.1643150199848
 10
357.859721779809
 20
307.1673742356602
 10
357.8438186145046
 20
307.1695764664589
 10
357.8276745339589
 20
307.1709131373266
 10
357.8114316284179
 20
307.1713568522573
  0
LWPOLYLINE
  5
B7D
330
1F
100
AcDbEntity
  8
3
  6
Continuous
100
AcDbPolyline
 90
        4
 70
   128
 43
0.0
 10
357.8374182875891
 20
307.14031325877
 10
357.865856228082
 20
307.1404858875065
 10
357.8934499496594
 20
307.1406645085965
 10
357.9201710887095
 20
307.1408489384352
  0
LWPOLYLINE
  5
B83
330
1F
100
AcDbEntity
  8
3
  6
Continuous
100
AcDbPolyline
 90
       11
 70
   128
 43
0.0
 10
357.866431628418
 20
307.0333653279427
 10
357.8640851114423
 20
307.0331806530516
 10
357.8617963735023
 20
307.0326311756871
 10
357.8596217709218
 20
307.0317304258054
 10
357.8576148496335
 20
307.0305005828582
 10
357.8558250267001
 20
307.0289719296604
 10
357.8542963735023
 20
307.027182106727
 10
357.8530665305551
 20
307.0251751854387
 10
357.8521657806735
 20
307.0230005828582
 10
357.851616303309
 20
307.0207118449182
 10
357.8514316284179
 20
307.0183653279426
  0
LINE
  5
B84
330
1F
100
AcDbEntity
  8
3
  6
Continuous
100
AcDbLine
 10
357.8684316284179
 20
307.0333653279427
 30
0.0
 11
357.8664316284179
 21
307.0333653279427
 31
0.0
  0
LWPOLYLINE
  5
B85
330
1F
100
AcDbEntity
  8
3
  6
Continuous
100
AcDbPolyline
 90
       11
 70
   128
 43
0.0
 10
357.883431628418
 20
307.0183653279426
 10
357.8832469535269
 20
307.0207118449182
 10
357.8826974761624
 20
307.0230005828582
 10
357.8817967262807
 20
307.0251751854387
 10
357.8805668833336
 20
307.027182106727
 10
357.8790382301357
 20
307.0289719296604
 10
357.8772484072023
 20
307.0305005828582
 10
357.875241485914
 20
307.0317304258054
 10
357.8730668833336
 20
307.0326311756871
 10
357.8707781453936
 20
307.0331806530516
 10
357.8684316284179
 20
307.0333653279427
  0
LWPOLYLINE
  5
B88
330
1F
100
AcDbEntity
  8
3
  6
Continuous
100
AcDbPolyline
 90
       11
 70
   128
 43
0.0
 10
357.8514316284179
 20
307.0063653279426
 10
357.851616303309
 20
307.004018810967
 10
357.8521657806735
 20
307.001730073027
 10
357.8530665305551
 20
306.9995554704465
 10
357.8542963735023
 20
306.9975485491582
 10
357.8558250267001
 20
306.9957587262248
 10
357.8576148496335
 20
306.994230073027
 10
357.8596217709218
 20
306.9930002300798
 10
357.8617963735023
 20
306.9920994801982
 10
357.8640851114423
 20
306.9915500028337
 10
357.866431628418
 20
306.9913653279426
  0
LINE
  5
B89
330
1F
100
AcDbEntity
  8
3
  6
Continuous
100
AcDbLine
 10
357.8664316284179
 20
306.9913653279426
 30
0.0
 11
357.8684316284179
 21
306.9913653279426
 31
0.0
  0
LWPOLYLINE
  5
B8A
330
1F
100
AcDbEntity
  8
3
  6
Continuous
100
AcDbPolyline
 90
       11
 70
   128
 43
0.0
 10
357.8684316284179
 20
306.9913653279426
 10
357.8707781453936
 20
306.9915500028337
 10
357.8730668833336
 20
306.9920994801982
 10
357.875241485914
 20
306.9930002300798
 10
357.8772484072023
 20
306.994230073027
 10
357.8790382301357
 20
306.9957587262248
 10
357.8805668833336
 20
306.9975485491582
 10
357.8817967262807
 20
306.9995554704465
 10
357.8826974761624
 20
307.001730073027
 10
357.8832469535269
 20
307.004018810967
 10
357.883431628418
 20
307.0063653279426
  0
LINE
  5
B8C
330
1F
100
AcDbEntity
  8
3
  6
Continuous
100
AcDbLine
 10
357.8514316284179
 20
307.0183653279427
 30
0.0
 11
357.8514316284179
 21
307.0063653279427
 31
0.0
  0
LINE
  5
B8D
330
1F
100
AcDbEntity
  8
3
  6
Continuous
100
AcDbLine
 10
357.8834316284179
 20
307.0063653279427
 30
0.0
 11
357.8834316284179
 21
307.0183653279427
 31
0.0
  0
LINE
  5
B90
330
1F
100
AcDbEntity
  8
3
  6
Continuous
100
AcDbLine
 10
357.8114316284179
 20
307.0766218314635
 30
0.0
 11
357.8374316284179
 21
307.076604264922
 31
0.0
  0
LWPOLYLINE
  5
B91
330
1F
100
AcDbEntity
  8
3
  6
Continuous
100
AcDbPolyline
 90
        9
 70
   128
 43
0.0
 10
357.8394316284179
 20
307.068401852517
 10
357.8394700578571
 20
307.0680121034002
 10
357.8395838693529
 20
307.0676373321234
 10
357.8397686891933
 20
307.0672919409365
 10
357.8400174148555
 20
307.0669892030293
 10
357.8403204879519
 20
307.0667407524496
 10
357.8406662615532
 20
307.066556137014
 10
357.8410414477739
 20
307.0664424513901
 10
357.8414316284179
 20
307.0664040644526
  0
LINE
  5
B94
330
1F
100
AcDbEntity
  8
3
  6
Continuous
100
AcDbLine
 10
357.8374182875891
 20
307.066699779093
 30
0.0
 11
357.8114316284179
 21
307.0667243575885
 31
0.0
  0
LINE
  5
B9A
330
1F
100
AcDbEntity
  8
3
  6
Continuous
100
AcDbLine
 10
357.8374182875891
 20
307.062417452391
 30
0.0
 11
357.8374182875891
 21
307.066699779093
 31
0.0
  0
LWPOLYLINE
  5
B9D
330
1F
100
AcDbEntity
  8
3
  6
Continuous
100
AcDbPolyline
 90
        9
 70
   128
 43
0.0
 10
357.8374316284179
 20
307.076604264922
 10
357.837821809062
 20
307.0765662027289
 10
357.8381969952827
 20
307.0764534788583
 10
357.8385427688839
 20
307.0762704252254
 10
357.8388458419803
 20
307.0760240764784
 10
357.8390945676425
 20
307.0757238996619
 10
357.839279387483
 20
307.0753814304023
 10
357.8393931989787
 20
307.0750098296013
 10
357.8394316284179
 20
307.0746233776694
  0
LWPOLYLINE
  5
B9E
330
1F
100
AcDbEntity
  8
3
  6
Continuous
100
AcDbPolyline
 90
        6
 70
   128
 43
0.0
 10
357.8374182875891
 20
307.066699779093
 10
357.8374184873408
 20
307.067528249713
 10
357.837420206716
 20
307.0707802446763
 10
357.837423213887
 20
307.0735722359018
 10
357.8374271698065
 20
307.075589389484
 10
357.8374316284179
 20
307.076604264922
  0
LINE
  5
B9F
330
1F
100
AcDbEntity
  8
3
  6
Continuous
100
AcDbLine
 10
357.8114316284179
 20
307.0667243575885
 30
0.0
 11
357.8114316284179
 21
307.0766218314635
 31
0.0
  0
LWPOLYLINE
  5
BA1
330
1F
100
AcDbEntity
  8
3
  6
Continuous
100
AcDbPolyline
 90
        4
 70
   128
 43
0.0
 10
357.9201710887095
 20
307.0618817727258
 10
357.8934499496594
 20
307.0620662025645
 10
357.865856228082
 20
307.0622448236545
 10
357.8374182875891
 20
307.062417452391
  0
LINE
  5
BA3
330
1F
100
AcDbEntity
  8
3
  6
Continuous
100
AcDbLine
 10
357.8394316284179
 20
307.0684018525171
 30
0.0
 11
357.8394316284179
 21
307.1343288586441
 31
0.0
  0
LINE
  5
BA4
330
1F
100
AcDbEntity
  8
3
  6
Continuous
100
AcDbLine
 10
357.8374316284179
 20
307.076604264922
 30
0.0
 11
357.8374316284179
 21
307.126126446239
 31
0.0
  0
LINE
  5
BA5
330
1F
100
AcDbEntity
  8
3
  6
Continuous
100
AcDbLine
 10
357.8114316284179
 20
307.0766218314635
 30
0.0
 11
357.8114316284179
 21
307.1261088796975
 31
0.0
  0
LINE
  5
BA6
330
1F
100
AcDbEntity
  8
3
  6
Continuous
100
AcDbLine
 10
357.9251184116919
 20
307.1678931397104
 30
0.0
 11
357.9192239034839
 21
307.16875915358
 31
0.0
  0
LINE
  5
BAA
330
1F
100
AcDbEntity
  8
3
  6
Continuous
100
AcDbLine
 10
357.9598376013744
 20
307.1563653555805
 30
0.0
 11
357.9230256752242
 21
307.1563653555805
 31
0.0
  0
LINE
  5
BAB
330
1F
100
AcDbEntity
  8
3
  6
Continuous
100
AcDbLine
 10
357.8414316284179
 20
307.0664040644526
 30
0.0
 11
357.9556537904613
 21
307.0664040644526
 31
0.0
  0
LINE
  5
BAC
330
1F
100
AcDbEntity
  8
3
  6
Continuous
100
AcDbLine
 10
357.8414316284179
 20
307.1363266467085
 30
0.0
 11
357.9556537904613
 21
307.1363266467085
 31
0.0
  0
LWPOLYLINE
  5
BAD
330
1F
100
AcDbEntity
  8
3
  6
Continuous
100
AcDbPolyline
 90
        4
 70
   128
 43
0.0
 10
357.9201710887095
 20
307.1408489384352
 10
357.9283387056185
 20
307.140570277203
 10
357.9365143122676
 20
307.1397925550487
 10
357.9433797790908
 20
307.139037368761
  0
LWPOLYLINE
  5
BB0
330
1F
100
AcDbEntity
  8
3
  6
Continuous
100
AcDbPolyline
 90
        4
 70
   128
 43
0.0
 10
357.9433797790908
 20
307.0636933424
 10
357.9353997041583
 20
307.0628162568383
 10
357.9272543272646
 20
307.0620876687324
 10
357.9201710887095
 20
307.0618817727258
  0
LINE
  5
BB2
330
1F
100
AcDbEntity
  8
3
  6
Continuous
100
AcDbLine
 10
357.9185365960928
 20
307.1649832138984
 30
0.0
 11
358.0138296560113
 21
307.1661066193367
 31
0.0
  0
LWPOLYLINE
  5
BB7
330
1F
100
AcDbEntity
  8
3
  6
Continuous
100
AcDbPolyline
 90
        7
 70
   128
 43
0.0
 10
358.0525040500321
 20
306.9573653527965
 10
358.0524634544592
 20
306.9570837351231
 10
358.0523163866037
 20
306.9567829472369
 10
358.052077844557
 20
306.956547240152
 10
358.0518945754144
 20
306.9564455234503
 10
358.0515661684869
 20
306.9563674572409
 10
358.051501145434
 20
306.9563653527965
  0
LINE
  5
BB8
330
1F
100
AcDbEntity
  8
3
  6
Continuous
100
AcDbLine
 10
358.0525040500321
 20
306.9713653527965
 30
0.0
 11
358.0525040500321
 21
306.9573653527966
 31
0.0
  0
LINE
  5
BB9
330
1F
100
AcDbEntity
  8
3
  6
Continuous
100
AcDbLine
 10
358.0113498848894
 20
306.9613653527965
 30
0.0
 11
358.040479873239
 21
306.9613653527965
 31
0.0
  0
LWPOLYLINE
  5
BBA
330
1F
100
AcDbEntity
  8
3
  6
Continuous
100
AcDbPolyline
 90
        7
 70
   128
 43
0.0
 10
358.040479873239
 20
306.9613653527965
 10
358.0407789556498
 20
306.9613429248539
 10
358.0411877045001
 20
306.9612362732661
 10
358.0417681609349
 20
306.9608966671886
 10
358.0422034464529
 20
306.9603840036933
 10
358.0424439978072
 20
306.9597566840889
 10
358.0424827145681
 20
306.9593653527965
  0
LWPOLYLINE
  5
BBB
330
1F
100
AcDbEntity
  8
3
  6
Continuous
100
AcDbPolyline
 90
        7
 70
   128
 43
0.0
 10
358.0434842646819
 20
306.9563653527965
 10
358.0433676493996
 20
306.9563721538936
 10
358.0430444269757
 20
306.9564669368585
 10
358.0427709676386
 20
306.95666335958
 10
358.0426393215354
 20
306.9568284257142
 10
358.0425090526308
 20
306.957137525391
 10
358.0424827145681
 20
306.9573653527965
  0
LINE
  5
BBC
330
1F
100
AcDbEntity
  8
3
  6
Continuous
100
AcDbLine
 10
358.0424827145681
 20
306.9573653527966
 30
0.0
 11
358.0424827145681
 21
306.9593653527965
 31
0.0
  0
LINE
  5
BBD
330
1F
100
AcDbEntity
  8
3
  6
Continuous
100
AcDbLine
 10
358.0424827145681
 20
306.9813653527966
 30
0.0
 11
358.0525040500321
 21
306.9813653527966
 31
0.0
  0
LINE
  5
BBE
330
1F
100
AcDbEntity
  8
3
  6
Continuous
100
AcDbLine
 10
358.051501145434
 20
306.9563653527965
 30
0.0
 11
358.0434842646819
 21
306.9563653527965
 31
0.0
  0
LINE
  5
BBF
330
1F
100
AcDbEntity
  8
3
  6
Continuous
100
AcDbLine
 10
358.0113498848894
 20
306.9713653527965
 30
0.0
 11
358.0525040500321
 21
306.9713653527965
 31
0.0
  0
ARC
  5
BC0
330
1F
100
AcDbEntity
  8
3
  6
Continuous
100
AcDbCircle
 10
357.9706094905763
 20
306.9783653555806
 30
0.0
 40
0.0020000000000001
100
AcDbArc
 50
123.0117180025559
 51
270.0
  0
LINE
  5
BC1
330
1F
100
AcDbEntity
  8
3
  6
Continuous
100
AcDbLine
 10
357.9706094905763
 20
306.9763653555805
 30
0.0
 11
357.9816224932379
 21
306.9763653555805
 31
0.0
  0
ARC
  5
BC2
330
1F
100
AcDbEntity
  8
3
  6
Continuous
100
AcDbCircle
 10
357.9816224932379
 20
306.9783653555806
 30
0.0
 40
0.0019999999999999
100
AcDbArc
 50
270.0
 51
303.0117180025558
  0
LINE
  5
BC3
330
1F
100
AcDbEntity
  8
3
  6
Continuous
100
AcDbLine
 10
357.9912210399869
 20
306.982216472648
 30
0.0
 11
357.9827121143311
 21
306.9766882372564
 31
0.0
  0
LINE
  5
BC4
330
1F
100
AcDbEntity
  8
3
  6
Continuous
100
AcDbLine
 10
357.9912210399869
 20
306.982216472648
 30
0.0
 11
357.9914113689487
 21
306.9797969374644
 31
0.0
  0
LINE
  5
BC5
330
1F
100
AcDbEntity
  8
3
  6
Continuous
100
AcDbLine
 10
357.9459835229517
 20
306.9647509472013
 30
0.0
 11
357.9510497609155
 21
306.9680424739047
 31
0.0
  0
ARC
  5
BC8
330
1F
100
AcDbEntity
  8
3
  6
Continuous
100
AcDbCircle
 10
357.9605918046164
 20
306.9503914903785
 30
0.0
 40
0.0100000000000001
100
AcDbArc
 50
123.0117180025559
 51
170.7670265327844
  0
ARC
  5
BC9
330
1F
100
AcDbEntity
  8
3
  6
Continuous
100
AcDbCircle
 10
357.9514316284179
 20
306.9563653555805
 30
0.0
 40
0.01
100
AcDbArc
 50
123.0117180025559
 51
170.7670265327844
  0
LINE
  5
BCA
330
1F
100
AcDbEntity
  8
3
  6
Continuous
100
AcDbLine
 10
357.9642420057636
 20
306.9646882372564
 30
0.0
 11
357.9551436991502
 21
306.9587770819991
 31
0.0
  0
LINE
  5
BCC
330
1F
100
AcDbEntity
  8
3
  6
Continuous
100
AcDbLine
 10
357.9510497609155
 20
306.9680424739047
 30
0.0
 11
357.9695198694831
 21
306.9800424739047
 31
0.0
  0
LINE
  5
BCD
330
1F
100
AcDbEntity
  8
3
  6
Continuous
100
AcDbLine
 10
357.9827121143311
 20
306.9766882372564
 30
0.0
 11
357.9642420057636
 21
306.9646882372564
 31
0.0
  0
LINE
  5
BCF
330
1F
100
AcDbEntity
  8
3
  6
Continuous
100
AcDbLine
 10
357.9332247672149
 20
306.906686254088
 30
0.0
 11
357.941561187511
 21
306.9579698481178
 31
0.0
  0
LINE
  5
BD0
330
1F
100
AcDbEntity
  8
3
  6
Continuous
100
AcDbLine
 10
357.9507213637094
 20
306.9519959829158
 30
0.0
 11
357.9432516993867
 21
306.9060444570731
 31
0.0
  0
LWPOLYLINE
  5
BD1
330
1F
100
AcDbEntity
  8
3
  6
Continuous
100
AcDbPolyline
 90
       10
 70
   128
 43
0.0
 10
358.0113498848895
 20
306.9613653527965
 10
358.0079924770486
 20
306.9616512116473
 10
358.0047297091385
 20
306.962492786374
 10
358.0016561828463
 20
306.9638738518071
 10
357.9988559077904
 20
306.9657479821914
 10
357.9964127895276
 20
306.9680685463495
 10
357.9943907267066
 20
306.9707639324517
 10
357.9928534631827
 20
306.9737623565251
 10
357.9918375851767
 20
306.9769750995206
 10
357.9914113689487
 20
306.9797969374643
  0
LWPOLYLINE
  5
BD2
330
1F
100
AcDbEntity
  8
3
  6
Continuous
100
AcDbPolyline
 90
        6
 70
   128
 43
0.0
 10
358.0113498848895
 20
306.9713653527965
 10
358.0080397966054
 20
306.9719290696899
 10
358.0051028955747
 20
306.9735566677974
 10
358.0028703046134
 20
306.9760646433952
 10
358.0015937338478
 20
306.9791702273203
 10
358.0013806259497
 20
306.9805811452046
  0
ARC
  5
BD3
330
1F
100
AcDbEntity
  8
3
  6
Continuous
100
AcDbCircle
 10
357.9282142220867
 20
306.8643653555805
 30
0.0
 40
0.0019999999999999
100
AcDbArc
 50
90.0
 51
158.676595582236
  0
LINE
  5
BD4
330
1F
100
AcDbEntity
  8
3
  6
Continuous
100
AcDbLine
 10
357.9364243765546
 20
306.8640444570731
 30
0.0
 11
357.9332897260354
 21
306.8447608630432
 31
0.0
  0
ARC
  5
BD5
330
1F
100
AcDbEntity
  8
3
  6
Continuous
100
AcDbCircle
 10
357.9344502883732
 20
306.8643653555805
 30
0.0
 40
0.0019999999999999
100
AcDbArc
 50
350.7670265327844
 51
90.0
  0
LINE
  5
BD6
330
1F
100
AcDbEntity
  8
3
  6
Continuous
100
AcDbLine
 10
357.9344502883732
 20
306.8663653555805
 30
0.0
 11
357.9282142220867
 21
306.8663653555805
 31
0.0
  0
LINE
  5
BDA
330
1F
100
AcDbEntity
  8
3
  6
Continuous
100
AcDbLine
 10
357.9432516993867
 20
306.9060444570731
 30
0.0
 11
357.9364243765546
 21
306.8640444570731
 31
0.0
  0
LINE
  5
BDB
330
1F
100
AcDbEntity
  8
3
  6
Continuous
100
AcDbLine
 10
357.9266286431677
 20
306.8661085317807
 30
0.0
 11
357.9332247672149
 21
306.906686254088
 31
0.0
  0
LINE
  5
BDD
330
1F
100
AcDbEntity
  8
3
  6
Continuous
100
AcDbLine
 10
357.9243576255797
 20
306.8521377937561
 30
0.0
 11
357.9234192851285
 21
306.8463653555805
 31
0.0
  0
ARC
  5
BE1
330
1F
100
AcDbEntity
  8
3
  6
Continuous
100
AcDbCircle
 10
357.8584316284179
 20
306.8509511196665
 30
0.0
 40
0.0020000000000002
100
AcDbArc
 50
98.00000000001402
 51
180.0
  0
ARC
  5
BE2
330
1F
100
AcDbEntity
  8
3
  6
Continuous
100
AcDbCircle
 10
357.8584316284179
 20
306.8383653555806
 30
0.0
 40
0.0020000000000002
100
AcDbArc
 50
180.0
 51
270.0
  0
LINE
  5
BE3
330
1F
100
AcDbEntity
  8
3
  6
Continuous
100
AcDbLine
 10
357.8564316284179
 20
306.8509511196665
 30
0.0
 11
357.8564316284179
 21
306.8383653555806
 31
0.0
  0
LINE
  5
BE4
330
1F
100
AcDbEntity
  8
3
  6
Continuous
100
AcDbLine
 10
357.858153282216
 20
306.852931655804
 30
0.0
 11
357.9223892882191
 21
306.8619594377056
 31
0.0
  0
LINE
  5
BE5
330
1F
100
AcDbEntity
  8
3
  6
Continuous
100
AcDbLine
 10
357.8584316284179
 20
306.8363653555806
 30
0.0
 11
357.9234192851285
 21
306.8363653555806
 31
0.0
  0
LINE
  5
BE6
330
1F
100
AcDbEntity
  8
3
  6
Continuous
100
AcDbLine
 10
357.8832845937612
 20
306.8463653555805
 30
0.0
 11
357.9243576255797
 21
306.8521377937561
 31
0.0
  0
LINE
  5
BE7
330
1F
100
AcDbEntity
  8
3
  6
Continuous
100
AcDbLine
 10
357.8832845937612
 20
306.8463653555805
 30
0.0
 11
357.9234192851285
 21
306.8463653555805
 31
0.0
  0
LWPOLYLINE
  5
BE8
330
1F
100
AcDbEntity
  8
3
  6
Continuous
100
AcDbPolyline
 90
        7
 70
   128
 43
0.0
 10
357.8337265640588
 20
306.8494987044451
 10
357.8285200320308
 20
306.8484849626112
 10
357.8232996419093
 20
306.8471300847404
 10
357.8195998176533
 20
306.8460904091738
 10
357.81773284563
 20
306.8455815486337
 10
357.8158357212341
 20
306.8452235663786
 10
357.8150317918863
 20
306.8451571787802
  0
LWPOLYLINE
  5
BEA
330
1F
100
AcDbEntity
  8
3
  6
Continuous
100
AcDbPolyline
 90
       13
 70
   128
 43
0.0
 10
357.8150317918863
 20
306.8451571787802
 10
357.8144151223169
 20
306.8452226504119
 10
357.8119746885093
 20
306.8456819651392
 10
357.8117850796093
 20
306.8457315760062
 10
357.8116598463294
 20
306.8457681298138
 10
357.8115773225828
 20
306.8457953691126
 10
357.811523108989
 20
306.8458159306813
 10
357.8114876498636
 20
306.8458316784013
 10
357.8114646166925
 20
306.8458439426209
 10
357.8114498344382
 20
306.8458536867647
 10
357.8114365828942
 20
306.8458661618719
 10
357.8114329883349
 20
306.845872184835
 10
357.8114316284179
 20
306.8458784538836
  0
LINE
  5
BEB
330
1F
100
AcDbEntity
  8
3
  6
Continuous
100
AcDbLine
 10
357.8114316284179
 20
306.8363653555806
 30
0.0
 11
357.8114316284179
 21
306.8383653555806
 31
0.0
  0
LINE
  5
BEC
330
1F
100
AcDbEntity
  8
3
  6
Continuous
100
AcDbLine
 10
357.8164316284179
 20
306.8363653555806
 30
0.0
 11
357.8114316284179
 21
306.8363653555806
 31
0.0
  0
LINE
  5
BED
330
1F
100
AcDbEntity
  8
3
  6
Continuous
100
AcDbLine
 10
357.8114316284179
 20
306.8458784538837
 30
0.0
 11
357.8114316284179
 21
306.8383653555806
 31
0.0
  0
LINE
  5
BEE
330
1F
100
AcDbEntity
  8
3
  6
Continuous
100
AcDbLine
 10
357.8584316284179
 20
306.8363653555806
 30
0.0
 11
357.8164316284179
 21
306.8363653555806
 31
0.0
  0
LINE
  5
BEF
330
1F
100
AcDbEntity
  8
3
  6
Continuous
100
AcDbLine
 10
357.8337265640588
 20
306.8494987044451
 30
0.0
 11
357.858153282216
 21
306.852931655804
 31
0.0
  0
ARC
  5
BF1
330
1F
100
AcDbEntity
  8
3
  6
Continuous
100
AcDbCircle
 10
357.9216934227143
 20
306.8669107780493
 30
0.0
 40
0.0049999999999999
100
AcDbArc
 50
278.000000000014
 51
338.6765955822602
  0
ARC
  5
BF2
330
1F
100
AcDbEntity
  8
3
  6
Continuous
100
AcDbCircle
 10
357.9234192851285
 20
306.8463653555805
 30
0.0
 40
0.0100000000000002
100
AcDbArc
 50
270.0
 51
350.7670265327844
  0
LINE
  5
BF5
330
1F
100
AcDbEntity
  8
3
  6
Continuous
100
AcDbLine
 10
357.9332649966011
 20
306.8363653555806
 30
0.0
 11
357.9234192851285
 21
306.8363653555806
 31
0.0
  0
LINE
  5
BF6
330
1F
100
AcDbEntity
  8
3
  6
Continuous
100
AcDbLine
 10
358.0525040500321
 20
306.9886405732946
 30
0.0
 11
358.0525040500321
 21
306.9813653527966
 31
0.0
  0
LINE
  5
BF7
330
1F
100
AcDbEntity
  8
3
  6
Continuous
100
AcDbLine
 10
357.9695198694831
 20
306.9800424739047
 30
0.0
 11
357.9893310577002
 21
306.9929137712084
 31
0.0
  0
LWPOLYLINE
  5
BF8
330
1F
100
AcDbEntity
  8
3
  6
Continuous
100
AcDbPolyline
 90
        4
 70
   128
 43
0.0
 10
357.9920491892532
 20
307.0992056935019
 10
357.9931848278421
 20
307.0847690749445
 10
357.997322351816
 20
307.032171432321
 10
358.0013806259497
 20
306.9805811452046
  0
LINE
  5
BFC
330
1F
100
AcDbEntity
  8
3
  6
Continuous
100
AcDbLine
 10
357.8114316284179
 20
306.8458784538837
 30
0.0
 11
357.8114316284179
 21
307.0667243575885
 31
0.0
  0
LINE
  5
BFF
330
1F
100
AcDbEntity
  8
3
  6
Continuous
100
AcDbLine
 10
358.051501145434
 20
306.9563653527965
 30
0.0
 11
358.1013621311645
 21
306.9563653527965
 31
0.0
  0
LINE
  5
C01
330
1F
100
AcDbEntity
  8
3
  6
Continuous
100
AcDbLine
 10
358.1801841625774
 20
306.8363653555806
 30
0.0
 11
357.9332649966011
 21
306.8363653555806
 31
0.0
  0
LWPOLYLINE
  5
C04
330
1F
100
AcDbEntity
  8
3
  6
Continuous
100
AcDbPolyline
 90
        7
 70
   128
 43
0.0
 10
358.0413069144963
 20
307.1585958876901
 10
358.0944332144518
 20
307.1608220999075
 10
358.1475693883663
 20
307.1628645961131
 10
358.1901775668212
 20
307.1643842124883
 10
358.232790127202
 20
307.1658093379867
 10
358.275402633783
 20
307.1671483286238
 10
358.3180184153458
 20
307.1684088055768
  0
LWPOLYLINE
  5
C05
330
1F
100
AcDbEntity
  8
3
  6
Continuous
100
AcDbPolyline
 90
        5
 70
   128
 43
0.0
 10
358.3530111087973
 20
307.1698975413506
 10
358.2485801103554
 20
307.1698557823539
 10
358.1441708531864
 20
307.1698411924227
 10
358.0921774393139
 20
307.1698533098284
 10
358.040196638388
 20
307.1698869675712
  0
LINE
  5
C06
330
1F
100
AcDbEntity
  8
3
100
AcDbLine
 10
358.032834775958
 20
306.9927284691596
 30
0.0
 11
358.0424827145681
 21
306.9813653527966
 31
0.0
  0
LINE
  5
C0C
330
1F
100
AcDbEntity
  8
3
100
AcDbLine
 10
357.8821195763471
 20
307.1735060084218
 30
0.0
 11
357.8812821647018
 21
307.1732543228333
 31
0.0
  0
LWPOLYLINE
  5
EF4
330
1F
100
AcDbEntity
  8
3
  6
Continuous
100
AcDbPolyline
 90
        7
 70
   128
 43
0.0
 10
357.0689536735873
 20
307.0248612897837
 10
357.116953743344
 20
307.015400777145
 10
357.1649724960646
 20
307.0059804426244
 10
357.2104212255756
 20
306.9969909610707
 10
357.2558639829576
 20
306.9879029481299
 10
357.2969673494951
 20
306.9795975918311
 10
357.3380634369065
 20
306.9712218886655
  0
LWPOLYLINE
  5
EF5
330
1F
100
AcDbEntity
  8
3
  6
Continuous
100
AcDbPolyline
 90
        5
 70
   128
 43
0.0
 10
357.1787141846213
 20
307.1634517828003
 10
357.2235565408046
 20
307.1634021555791
 10
357.2987750564264
 20
307.1633669152793
 10
357.3955729587094
 20
307.163361396689
 10
357.4908212466667
 20
307.1633854312296
  0
LWPOLYLINE
  5
EF7
330
1F
100
AcDbEntity
  8
3
  6
Continuous
100
AcDbPolyline
 90
       12
 70
   128
 43
0.0
 10
357.0790934117588
 20
307.1447007183545
 10
357.106240071086
 20
307.1416071578955
 10
357.1333598024771
 20
307.1385843227429
 10
357.1604885837097
 20
307.1357667306867
 10
357.1876147532773
 20
307.1332098890779
 10
357.2151834589567
 20
307.1309060675543
 10
357.2427570707297
 20
307.1288931143877
 10
357.2979475459464
 20
307.1256777038495
 10
357.3533021679468
 20
307.1234114228699
 10
357.4086875895641
 20
307.1219787530474
 10
357.4583593782225
 20
307.1213411935883
 10
357.5080369040458
 20
307.1213017868934
  0
LINE
  5
EF9
330
1F
100
AcDbEntity
  8
3
  6
Continuous
100
AcDbLine
 10
357.0661425114261
 20
306.8297117288837
 30
0.0
 11
357.3366676876769
 21
306.8297117288837
 31
0.0
  0
LWPOLYLINE
  5
EFB
330
1F
100
AcDbEntity
  8
3
  6
Continuous
100
AcDbPolyline
 90
        3
 70
   128
 43
0.0
 10
357.3558540869604
 20
306.9634756460999
 10
357.355501352275
 20
306.9381830856808
 10
357.3541214299325
 20
306.8326927014553
  0
LWPOLYLINE
  5
EFC
330
1F
100
AcDbEntity
  8
3
  6
Continuous
100
AcDbPolyline
 90
        7
 70
   128
 43
0.0
 10
357.3463093531761
 20
306.8315558463922
 10
357.3475904961772
 20
306.8545113568177
 10
357.3484750367212
 20
306.877510353507
 10
357.3489858796035
 20
306.89942569468
 10
357.3491890144182
 20
306.921361728826
 10
357.3490786774392
 20
306.9433265225129
 10
357.3486296247292
 20
306.9652986963659
  0
LINE
  5
EFE
330
1F
100
AcDbEntity
  8
3
100
AcDbLine
 10
357.3521086096942
 20
306.8297117288837
 30
0.0
 11
357.3455999006696
 21
306.8297117288837
 31
0.0
  0
LINE
  5
EFF
330
1F
100
AcDbEntity
  8
3
100
AcDbLine
 10
357.3541214299325
 20
306.8326927014553
 30
0.0
 11
357.354108432907
 21
306.8316853557688
 31
0.0
  0
LWPOLYLINE
  5
F00
330
1F
100
AcDbEntity
  8
3
  6
Continuous
100
AcDbPolyline
 90
        9
 70
   128
 43
0.0
 10
357.354108432907
 20
306.8316853557687
 10
357.3540655448161
 20
306.8312989409921
 10
357.3539487062149
 20
306.8309281250337
 10
357.3537623323105
 20
306.8305869206368
 10
357.3535134659759
 20
306.830288221555
 10
357.353211511607
 20
306.8300433153108
 10
357.3528678797401
 20
306.8298614566527
 10
357.3524955558606
 20
306.829749517827
 10
357.3521086096942
 20
306.8297117288836
  0
LWPOLYLINE
  5
F01
330
1F
100
AcDbEntity
  8
3
  6
Continuous
100
AcDbPolyline
 90
        9
 70
   128
 43
0.0
 10
357.3443566599634
 20
306.8297117288836
 10
357.3447200212402
 20
306.829746446412
 10
357.3450707675115
 20
306.8298493936903
 10
357.3453967217337
 20
306.8300169966434
 10
357.345686567582
 20
306.8302434365111
 10
357.3459302423249
 20
306.8305208518608
 10
357.3461192861775
 20
306.8308396115174
 10
357.3462471360045
 20
306.8311886489333
 10
357.3463093531761
 20
306.8315558463922
  0
LINE
  5
F02
330
1F
100
AcDbEntity
  8
3
  6
Continuous
100
AcDbLine
 10
357.3366676876769
 20
306.8297117288837
 30
0.0
 11
357.3455999006696
 21
306.8297117288837
 31
0.0
  0
LINE
  5
F03
330
1F
100
AcDbEntity
  8
3
100
AcDbLine
 10
357.5160572681153
 20
307.1166057821905
 30
0.0
 11
357.3561440719706
 21
306.9822564092084
 31
0.0
  0
LINE
  5
F04
330
1F
100
AcDbEntity
  8
3
100
AcDbLine
 10
357.3635477795495
 20
306.9802174158865
 30
0.0
 11
357.5345886428282
 21
307.1207346465943
 31
0.0
  0
LWPOLYLINE
  5
F06
330
1F
100
AcDbEntity
  8
3
  6
Continuous
100
AcDbPolyline
 90
        4
 70
   128
 43
0.0
 10
357.4908203141315
 20
307.1633660162699
 10
357.4909020151898
 20
307.1633653916078
 10
357.501181466372
 20
307.1635192703752
 10
357.5088177809893
 20
307.1638688461301
  0
LWPOLYLINE
  5
F09
330
1F
100
AcDbEntity
  8
3
  6
Continuous
100
AcDbPolyline
 90
        9
 70
   128
 43
0.0
 10
357.5406722589866
 20
307.1411650924268
 10
357.5412373017928
 20
307.1384148875753
 10
357.5414113735031
 20
307.1356125666404
 10
357.541191041089
 20
307.1328133967746
 10
357.540580649929
 20
307.1300725829849
 10
357.5395922381094
 20
307.1274441793847
 10
357.5382452990102
 20
307.1249800231425
 10
357.5365663968578
 20
307.1227287121531
 10
357.5345886428282
 20
307.1207346465943
  0
LWPOLYLINE
  5
F0B
330
1F
100
AcDbEntity
  8
3
  6
Continuous
100
AcDbPolyline
 90
        8
 70
   128
 43
0.0
 10
357.520405126201
 20
307.1204254373393
 10
357.5227443848713
 20
307.1229170080654
 10
357.5246402993615
 20
307.1257622822073
 10
357.5260319835761
 20
307.1288858558659
 10
357.5268852824027
 20
307.1321956578472
 10
357.5271660379727
 20
307.1355891819059
 10
357.5268753519056
 20
307.1389780824377
 10
357.5264888469742
 20
307.1407365050275
  0
LWPOLYLINE
  5
F0C
330
1F
100
AcDbEntity
  8
3
  6
Continuous
100
AcDbPolyline
 90
        8
 70
   128
 43
0.0
 10
357.520405126201
 20
307.1204254373393
 10
357.5224310928309
 20
307.1207112423892
 10
357.5259025605595
 20
307.1211517205084
 10
357.5287935561096
 20
307.1214192223859
 10
357.5311105760907
 20
307.1215039043294
 10
357.5325067406203
 20
307.1214439822869
 10
357.5335595104356
 20
307.1212809530159
 10
357.5345886428282
 20
307.1207346465943
  0
ARC
  5
F0E
330
1F
100
AcDbEntity
  8
3
100
AcDbCircle
 10
357.5158875772483
 20
307.1428143506706
 30
0.0
 40
0.0229002941028962
100
AcDbArc
 50
249.9512378331873
 51
281.1310329758028
  0
LWPOLYLINE
  5
F11
330
1F
100
AcDbEntity
  8
3
  6
Continuous
100
AcDbPolyline
 90
        5
 70
   128
 43
0.0
 10
357.5160572681153
 20
307.1166057821904
 10
357.517217488036
 20
307.11766898929
 10
357.5184402110867
 20
307.1187522206446
 10
357.5193263081029
 20
307.1195167333613
 10
357.520211989103
 20
307.120264265247
  0
LINE
  5
F13
330
1F
100
AcDbEntity
  8
3
  6
Continuous
100
AcDbLine
 10
357.5146061283401
 20
307.1638725283488
 30
0.0
 11
357.527799551346
 21
307.1638725281756
 31
0.0
  0
LWPOLYLINE
  5
F15
330
1F
100
AcDbEntity
  8
3
  6
Continuous
100
AcDbPolyline
 90
        3
 70
   128
 43
0.0
 10
357.5264888469742
 20
307.1407365050275
 10
357.5237566964869
 20
307.1527253903555
 10
357.5228593719968
 20
307.1566521759733
  0
ARC
  5
F19
330
1F
100
AcDbEntity
  8
3
100
AcDbCircle
 10
357.5269943818742
 20
307.1542621955368
 30
0.0
 40
0.0096440028673847
100
AcDbArc
 50
14.81273047188496
 51
85.21085007210663
  0
LINE
  5
F1B
330
1F
100
AcDbEntity
  8
3
  6
Continuous
100
AcDbLine
 10
357.5362425476738
 20
307.1569968290862
 30
0.0
 11
357.5406753283207
 21
307.1411659518665
 31
0.0
  0
LWPOLYLINE
  5
F1D
330
1F
100
AcDbEntity
  8
3
  6
Continuous
100
AcDbPolyline
 90
        8
 70
   128
 43
0.0
 10
357.5088125424318
 20
307.1638585025445
 10
357.5090651681583
 20
307.1638736093548
 10
357.510400373594
 20
307.1639308451123
 10
357.5115868219187
 20
307.1639637234956
 10
357.5126040052812
 20
307.1639754538156
 10
357.5135982006815
 20
307.1639604705298
 10
357.5142175170179
 20
307.1639238765612
 10
357.5144352284623
 20
307.1638992913496
  0
LWPOLYLINE
  5
F20
330
1F
100
AcDbEntity
  8
3
  6
Continuous
100
AcDbPolyline
 90
        8
 70
   128
 43
0.0
 10
357.5144352422975
 20
307.1639038061404
 10
357.5159218400638
 20
307.1636317096349
 10
357.5175221242747
 20
307.1630503438418
 10
357.5189986204683
 20
307.1621947467473
 10
357.5203068072805
 20
307.1610907175036
 10
357.5214072384456
 20
307.1597715463336
 10
357.5222667322345
 20
307.1582770107189
 10
357.5228593719968
 20
307.1566521759733
  0
LINE
  5
F24
330
1F
100
AcDbEntity
  8
3
100
AcDbLine
 10
357.355873000087
 20
306.96474163676
 30
0.0
 11
357.3558540869604
 21
306.9634756460999
 31
0.0
  0
LWPOLYLINE
  5
F26
330
1F
100
AcDbEntity
  8
3
  6
Continuous
100
AcDbPolyline
 90
        7
 70
   128
 43
0.0
 10
357.3635477795495
 20
306.9802174158864
 10
357.3621666118015
 20
306.9790313399031
 10
357.3599169858427
 20
306.9765217842457
 10
357.3581169851523
 20
306.9736721355154
 10
357.3570903230928
 20
306.9713401314869
 10
357.3562049658423
 20
306.9680922113871
 10
357.355873000087
 20
306.9647416367599
  0
LWPOLYLINE
  5
F2B
330
1F
100
AcDbEntity
  8
3
  6
Continuous
100
AcDbPolyline
 90
        7
 70
   128
 43
0.0
 10
357.348855390519
 20
306.9686137901874
 10
357.3493085153733
 20
306.9707772820247
 10
357.349967257879
 20
306.9729499099751
 10
357.3507701481552
 20
306.9749468885466
 10
357.3517289282268
 20
306.9768377979427
 10
357.352777735474
 20
306.9785260364553
 10
357.353923048204
 20
306.9800580877151
  0
LINE
  5
F2C
330
1F
100
AcDbEntity
  8
3
  6
Continuous
100
AcDbLine
 10
357.353923048204
 20
306.9800580877151
 30
0.0
 11
357.3561440719706
 21
306.9822564092084
 31
0.0
  0
LINE
  5
F2F
330
1F
100
AcDbEntity
  8
3
  6
Continuous
100
AcDbLine
 10
357.3486296247291
 20
306.965298696366
 30
0.0
 11
357.348855390519
 21
306.9686137901874
 31
0.0
  0
LWPOLYLINE
  5
F30
330
1F
100
AcDbEntity
  8
3
  6
Continuous
100
AcDbPolyline
 90
        5
 70
   128
 43
0.0
 10
357.348855390519
 20
306.9686137901874
 10
357.3510627355591
 20
306.9685483904596
 10
357.3539046705968
 20
306.968418130158
 10
357.3554849204768
 20
306.9682501072555
 10
357.3561983425328
 20
306.9680253614411
  0
LWPOLYLINE
  5
F31
330
1F
100
AcDbEntity
  8
3
  6
Continuous
100
AcDbPolyline
 90
        9
 70
   128
 43
0.0
 10
357.348855390519
 20
306.9686137901874
 10
357.3483637537943
 20
306.968852483309
 10
357.3475820041699
 20
306.9691288387206
 10
357.3465261842151
 20
306.9694371852316
 10
357.3452179607965
 20
306.9697711951509
 10
357.3436841804445
 20
306.9701240141391
 10
357.3419563184253
 20
306.9704884018687
 10
357.3400698328261
 20
306.9708568806065
 10
357.3380634369065
 20
306.9712218886655
  0
LINE
  5
F37
330
1F
100
AcDbEntity
  8
3
  6
Continuous
100
AcDbLine
 10
357.0320823099283
 20
307.0577117288837
 30
0.0
 11
356.9910823099283
 21
307.0577117288837
 31
0.0
  0
LINE
  5
F3A
330
1F
100
AcDbEntity
  8
3
  6
Continuous
100
AcDbLine
 10
357.0320823099283
 20
307.0697117288837
 30
0.0
 11
356.9910823099283
 21
307.0697117288837
 31
0.0
  0
LINE
  5
F3C
330
1F
100
AcDbEntity
  8
3
  6
Continuous
100
AcDbLine
 10
356.9910823099283
 20
307.1327117288837
 30
0.0
 11
357.0320823099283
 21
307.1327117288837
 31
0.0
  0
LINE
  5
F3E
330
1F
100
AcDbEntity
  8
3
  6
Continuous
100
AcDbLine
 10
356.9910823099283
 20
307.1197117288837
 30
0.0
 11
357.0320823099283
 21
307.1197117288837
 31
0.0
  0
LWPOLYLINE
  5
F40
330
1F
100
AcDbEntity
  8
3
  6
Continuous
100
AcDbPolyline
 90
       49
 70
   128
 43
0.0
 10
356.966674121947
 20
307.1741583427678
 10
356.9667075935749
 20
307.1741532853865
 10
356.9671678925342
 20
307.1740828320284
 10
356.9677377564781
 20
307.1740004785779
 10
356.9684091803523
 20
307.1739119565527
 10
356.9691745530757
 20
307.1738218824157
 10
356.9700263360918
 20
307.1737337948259
 10
356.9709568911363
 20
307.1736501771301
 10
356.9714492849637
 20
307.1736105343406
 10
356.9719584560207
 20
307.1735724658276
 10
356.9724834348893
 20
307.1735359867267
 10
356.9730232678767
 20
307.1735010453432
 10
356.973577028944
 20
307.1734675222323
 10
356.9741438339612
 20
307.1734352290523
 10
356.9753133507711
 20
307.1733732261083
 10
356.976117412515
 20
307.1733326051198
 10
356.976939536405
 20
307.1732912264301
 10
356.9777873715475
 20
307.1732463146012
 10
356.9792454474787
 20
307.1731479273164
 10
356.9809559494359
 20
307.173007639723
 10
356.9819067493293
 20
307.1729215453947
 10
356.9829222824258
 20
307.1728245180916
 10
356.9840037132658
 20
307.1727162220222
 10
356.9851525522192
 20
307.1725962293132
 10
356.9876604357003
 20
307.1723189642941
 10
356.9904663536877
 20
307.1719873400918
 10
356.9941507906341
 20
307.17152298122
 10
356.9971579016999
 20
307.1711226779817
 10
356.9994720673232
 20
307.1708033935769
 10
357.0029559965743
 20
307.170308292034
 10
357.0063574480095
 20
307.1698117334762
 10
357.0094630475878
 20
307.1693495403961
 10
357.0131734188502
 20
307.1687890824552
 10
357.0172651550705
 20
307.1681636647717
 10
357.0217879301565
 20
307.1674669875477
 10
357.0267955879897
 20
307.1666929230069
 10
357.0322964464606
 20
307.1658430331272
 10
357.0370372179702
 20
307.1651131207241
 10
357.0416335353982
 20
307.1644089981389
 10
357.0458353970429
 20
307.1637691856033
 10
357.047267083486
 20
307.1635521572489
 10
357.0486052076464
 20
307.1633497911966
 10
357.0498450831102
 20
307.1631627100269
 10
357.0511206886911
 20
307.1629706824788
 10
357.053022230146
 20
307.1626852807453
 10
357.0556560117172
 20
307.1622915830281
 10
357.0578476561377
 20
307.1619653902619
 10
357.0604132514847
 20
307.1615852113525
 10
357.0626746820764
 20
307.1612518747853
  0
LWPOLYLINE
  5
F42
330
1F
100
AcDbEntity
  8
3
  6
Continuous
100
AcDbPolyline
 90
       10
 70
   128
 43
0.0
 10
357.0210823099283
 20
306.9997117012458
 10
357.0207148965525
 20
306.9964120938924
 10
357.0199521193327
 20
306.9940035317296
 10
357.0187984814523
 20
306.9917556355239
 10
357.0172820377552
 20
306.9897356877697
 10
357.0154500147264
 20
306.9879964928902
 10
357.0133504111485
 20
306.9865918931657
 10
357.0110459328019
 20
306.9855567569517
 10
357.008599597745
 20
306.9849259677412
 10
357.0060823099283
 20
306.9847117012458
  0
LWPOLYLINE
  5
F44
330
1F
100
AcDbEntity
  8
3
  6
Continuous
100
AcDbPolyline
 90
       10
 70
   128
 43
0.0
 10
357.0060823099283
 20
307.0267117012458
 10
357.0093778142295
 20
307.0263452124923
 10
357.0117857352108
 20
307.0255834569524
 10
357.0140331710607
 20
307.0244311276186
 10
357.0160544982856
 20
307.0229148263858
 10
357.0177947192344
 20
307.0210829054505
 10
357.0192007685935
 20
307.0189822324346
 10
357.0202367427618
 20
307.0166767824295
 10
357.0208679411679
 20
307.0142296098897
 10
357.0210823099283
 20
307.0117117012458
  0
LINE
  5
F46
330
1F
100
AcDbEntity
  8
3
  6
Continuous
100
AcDbLine
 10
356.9490823099283
 20
306.8297117288837
 30
0.0
 11
357.0660679403574
 21
306.8297117288837
 31
0.0
  0
LWPOLYLINE
  5
F48
330
1F
100
AcDbEntity
  8
3
  6
Continuous
100
AcDbPolyline
 90
        7
 70
   128
 43
0.0
 10
357.0665909214309
 20
306.8313986948194
 10
357.067609470803
 20
306.865193922667
 10
357.0684300030364
 20
306.8991623033674
 10
357.0689329296247
 20
306.930335749743
 10
357.0691858380338
 20
306.9615929708212
 10
357.0691896312391
 20
306.992961518046
 10
357.0689501076381
 20
307.0243616784204
  0
LWPOLYLINE
  5
F49
330
1F
100
AcDbEntity
  8
3
  6
Continuous
100
AcDbPolyline
 90
        8
 70
   128
 43
0.0
 10
357.0640973192884
 20
306.8317255649209
 10
357.0642924688726
 20
306.8862759636613
 10
357.064352183934
 20
306.9408117038818
 10
357.0643771394102
 20
306.9953440402063
 10
357.0643868130049
 20
307.0362424441557
 10
357.0643920516553
 20
307.0771404364436
 10
357.0642968185532
 20
307.1180594953499
 10
357.064082278899
 20
307.1590022055673
  0
LWPOLYLINE
  5
F4F
330
1F
100
AcDbEntity
  8
3
  6
Continuous
100
AcDbPolyline
 90
        9
 70
   128
 43
0.0
 10
357.0657710705233
 20
306.8297117288836
 10
357.0657093688051
 20
306.8297179168147
 10
357.0653280592014
 20
306.8298358113083
 10
357.0649777522638
 20
306.8300270780327
 10
357.064672399629
 20
306.8302840994288
 10
357.064424162543
 20
306.8305966391333
 10
357.0642429275176
 20
306.8309522496611
 10
357.0641359125803
 20
306.8313367681505
 10
357.0641073798037
 20
306.8317348804251
  0
LWPOLYLINE
  5
F50
330
1F
100
AcDbEntity
  8
3
  6
Continuous
100
AcDbPolyline
 90
        9
 70
   128
 43
0.0
 10
357.0661425114262
 20
306.8297117288836
 10
357.0662223192346
 20
306.8297428720736
 10
357.0662996415734
 20
306.8298353317451
 10
357.0663720703781
 20
306.829986228409
 10
357.0664373499848
 20
306.830190862662
 10
357.0664934473783
 20
306.8304428615405
 10
357.0665386155067
 20
306.8307343769957
 10
357.0665714476906
 20
306.8310563303064
 10
357.0665909214309
 20
306.8313986948194
  0
LWPOLYLINE
  5
F55
330
1F
100
AcDbEntity
  8
3
  6
Continuous
100
AcDbPolyline
 90
        4
 70
   128
 43
0.0
 10
357.0760426784485
 20
307.1643730078739
 10
357.10656552105
 20
307.1643309755544
 10
357.1693443889709
 20
307.1642656921499
 10
357.1748207601882
 20
307.1642615740409
  0
ARC
  5
F58
330
1F
100
AcDbEntity
  8
3
100
AcDbCircle
 10
357.1747755366926
 20
307.1564799727613
 30
0.0
 40
0.0077817326887592
100
AcDbArc
 50
66.51393624405229
 51
90.24680569309539
  0
ARC
  5
F5B
330
1F
100
AcDbEntity
  8
3
100
AcDbCircle
 10
357.1786354461186
 20
307.1652571614354
 30
0.0
 40
0.0018070948419548
100
AcDbArc
 50
245.1756552179667
 51
272.49727490105
  0
LINE
  5
F5E
330
1F
100
AcDbEntity
  8
3
  6
Continuous
100
AcDbLine
 10
357.0340823099283
 20
307.1307117288837
 30
0.0
 11
357.0340823099283
 21
307.0597117288837
 31
0.0
  0
LWPOLYLINE
  5
F62
330
1F
100
AcDbEntity
  8
3
  6
Continuous
100
AcDbPolyline
 90
        6
 70
   128
 43
0.0
 10
357.0340823099283
 20
307.0597117288837
 10
357.0340338154271
 20
307.0592739774836
 10
357.0337785520536
 20
307.0586521239326
 10
357.0333319275038
 20
307.0581501732763
 10
357.0327445571402
 20
307.0578245541089
 10
357.0320823099283
 20
307.0577117288836
  0
ARC
  5
F69
330
1F
100
AcDbEntity
  8
3
  6
Continuous
100
AcDbCircle
 10
357.0320823099283
 20
307.0717117288837
 30
0.0
 40
0.002
100
AcDbArc
 50
270.0
 51
0.000000000000007
  0
LWPOLYLINE
  5
F6E
330
1F
100
AcDbEntity
  8
3
  6
Continuous
100
AcDbPolyline
 90
        6
 70
   128
 43
0.0
 10
357.0320823099283
 20
307.1327117288837
 10
357.0325268261289
 20
307.1326617046136
 10
357.0331458223059
 20
307.1324055238602
 10
357.0336455126332
 20
307.1319592854168
 10
357.0339699890445
 20
307.1313725371418
 10
357.0340823099283
 20
307.1307117288837
  0
ARC
  5
F71
330
1F
100
AcDbEntity
  8
3
  6
Continuous
100
AcDbCircle
 10
357.0320823099283
 20
307.1177117288837
 30
0.0
 40
0.002
100
AcDbArc
 50
0.000000000000007
 51
90.0
  0
LWPOLYLINE
  5
F78
330
1F
100
AcDbEntity
  8
3
  6
Continuous
100
AcDbPolyline
 90
        5
 70
   128
 43
0.0
 10
357.065471105443
 20
307.1609400228112
 10
357.066410714138
 20
307.1612996690561
 10
357.0696425480135
 20
307.1624515624578
 10
357.0733225361879
 20
307.1636552246455
 10
357.0750812830997
 20
307.1641886116183
  0
ARC
  5
F7B
330
1F
100
AcDbEntity
  8
3
100
AcDbCircle
 10
357.0759315254941
 20
307.1623540972218
 30
0.0
 40
0.0020219681501632
100
AcDbArc
 50
86.84871041386371
 51
114.8663081171954
  0
LWPOLYLINE
  5
F7F
330
1F
100
AcDbEntity
  8
3
  6
Continuous
100
AcDbPolyline
 90
        7
 70
   128
 43
0.0
 10
357.0790934117588
 20
307.1447007183545
 10
357.0791456476165
 20
307.1479817210967
 10
357.0790525368836
 20
307.1513482276632
 10
357.0788246975691
 20
307.1545127318342
 10
357.078459186341
 20
307.1575736546857
 10
357.0781400311758
 20
307.1595104791083
 10
357.077765634903
 20
307.1613159570054
  0
LWPOLYLINE
  5
F83
330
1F
100
AcDbEntity
  8
3
  6
Continuous
100
AcDbPolyline
 90
        4
 70
   128
 43
0.0
 10
357.0777758847983
 20
307.1613160177094
 10
357.077117707253
 20
307.1632639072429
 10
357.0763328118049
 20
307.1642715706887
 10
357.0760423200854
 20
307.1643054123852
  0
LINE
  5
F84
330
1F
100
AcDbEntity
  8
3
100
AcDbLine
 10
357.0626746820764
 20
307.1612518747853
 30
0.0
 11
357.0639820691643
 21
307.1610617921701
 31
0.0
  0
LWPOLYLINE
  5
F85
330
1F
100
AcDbEntity
  8
3
  6
Continuous
100
AcDbPolyline
 90
        5
 70
   128
 43
0.0
 10
357.0654691038026
 20
307.1609434740218
 10
357.0648398402428
 20
307.1605809931656
 10
357.064363967824
 20
307.1600238473797
 10
357.064113796651
 20
307.159352837632
 10
357.064082278899
 20
307.1590022055673
  0
LWPOLYLINE
  5
F8C
330
1F
100
AcDbEntity
  8
3
  6
Continuous
100
AcDbPolyline
 90
        3
 70
   128
 43
0.0
 10
357.0640471255348
 20
307.1610466351586
 10
357.0647726284352
 20
307.1610577639319
 10
357.0658207201649
 20
307.1610738419451
  0
LWPOLYLINE
  5
F90
330
1F
100
AcDbEntity
  8
3
  6
Continuous
100
AcDbPolyline
 90
        5
 70
   128
 43
0.0
 10
357.0640471404185
 20
307.1610466241065
 10
357.0640308718755
 20
307.1610463770142
 10
357.0640146035357
 20
307.1610461296885
 10
357.063998335341
 20
307.1610458821959
 10
357.0639820672266
 20
307.1610456346115
  0
LINE
  5
F94
330
1F
100
AcDbEntity
  8
3
  6
Continuous
100
AcDbLine
 10
357.0210823099283
 20
307.0117117012458
 30
0.0
 11
357.0210823099283
 21
306.9997117012458
 31
0.0
  0
LWPOLYLINE
  5
F98
330
1F
100
AcDbEntity
  8
3
  6
Continuous
100
AcDbPolyline
 90
        5
 70
   128
 43
0.0
 10
357.0689501076381
 20
307.0243616784204
 10
357.0688994336827
 20
307.02768241118
 10
357.0689584227561
 20
307.0310154919737
 10
357.0691159252924
 20
307.0339785150797
 10
357.0693801882667
 20
307.0367968267727
  0
LWPOLYLINE
  5
F99
330
1F
100
AcDbEntity
  8
3
  6
Continuous
100
AcDbPolyline
 90
       12
 70
   128
 43
0.0
 10
357.0693801882667
 20
307.0367968267727
 10
357.0706402813945
 20
307.0458630085444
 10
357.0718666728728
 20
307.0551689353149
 10
357.0730424885493
 20
307.0646961388393
 10
357.0741536160268
 20
307.0744291131339
 10
357.0741686349086
 20
307.0745666562729
 10
357.0751936114922
 20
307.0844223018255
 10
357.0761298577612
 20
307.0944490717596
 10
357.0770286541936
 20
307.1054518981711
 10
357.0777996929802
 20
307.1166154913747
 10
357.0785582942905
 20
307.1305492341442
 10
357.0790934117588
 20
307.1447007183545
  0
LINE
  5
F9C
330
1F
100
AcDbEntity
  8
3
  6
Continuous
100
AcDbLine
 10
356.9490823099283
 20
307.1647299996661
 30
0.0
 11
356.9490823099283
 21
306.8317117182225
 31
0.0
  0
LINE
  5
F9D
330
1F
100
AcDbEntity
  8
3
  6
Continuous
100
AcDbLine
 10
356.9490823099283
 20
306.8317117182225
 30
0.0
 11
356.9490823099283
 21
306.8297117288837
 31
0.0
  0
LINE
  5
F9F
330
1F
100
AcDbEntity
  8
3
  6
Continuous
100
AcDbLine
 10
356.9490823099283
 20
307.1682750993667
 30
0.0
 11
356.9490823099283
 21
307.1647299996661
 31
0.0
  0
LINE
  5
FA1
330
1F
100
AcDbEntity
  8
3
  6
Continuous
100
AcDbLine
 10
356.9890823099283
 20
307.0597117288837
 30
0.0
 11
356.9890823099283
 21
307.1307117288837
 31
0.0
  0
LWPOLYLINE
  5
FA4
330
1F
100
AcDbEntity
  8
3
  6
Continuous
100
AcDbPolyline
 90
        6
 70
   128
 43
0.0
 10
356.9910823099283
 20
307.0577117288836
 10
356.9906420386289
 20
307.0577607903447
 10
356.990021376085
 20
307.0580163176119
 10
356.9895202163843
 20
307.0584627838248
 10
356.9891949525746
 20
307.0590500021883
 10
356.9890823099283
 20
307.0597117288837
  0
ARC
  5
FA7
330
1F
100
AcDbEntity
  8
3
  6
Continuous
100
AcDbCircle
 10
356.9910823099283
 20
307.0717117288837
 30
0.0
 40
0.002
100
AcDbArc
 50
180.0
 51
270.0
  0
LWPOLYLINE
  5
FB0
330
1F
100
AcDbEntity
  8
3
  6
Continuous
100
AcDbPolyline
 90
        6
 70
   128
 43
0.0
 10
356.9890823099283
 20
307.1307117288837
 10
356.989130092802
 20
307.1311462956702
 10
356.9893844485285
 20
307.1317687372408
 10
356.9898310951364
 20
307.1322720049953
 10
356.9904192234089
 20
307.132598608919
 10
356.9910823099283
 20
307.1327117288837
  0
ARC
  5
FB1
330
1F
100
AcDbEntity
  8
3
  6
Continuous
100
AcDbCircle
 10
356.9910823099283
 20
307.1177117288837
 30
0.0
 40
0.002
100
AcDbArc
 50
90.0
 51
180.0
  0
LWPOLYLINE
  5
FBB
330
1F
100
AcDbEntity
  8
3
  6
Continuous
100
AcDbPolyline
 90
        6
 70
   128
 43
0.0
 10
356.9510956222306
 20
307.1747050283054
 10
356.9504328788438
 20
307.1745966952898
 10
356.9498433539048
 20
307.1742750975791
 10
356.9493935095662
 20
307.1737764918702
 10
356.9491340615862
 20
307.173157088621
 10
356.9490823099283
 20
307.1727050584255
  0
LWPOLYLINE
  5
FC0
330
1F
100
AcDbEntity
  8
3
  6
Continuous
100
AcDbPolyline
 90
        4
 70
   128
 43
0.0
 10
356.9510956222306
 20
307.1747050283054
 10
356.9522845742914
 20
307.1746947772476
 10
356.9624940008266
 20
307.174414244483
 10
356.966674121947
 20
307.1741583427678
  0
LINE
  5
FC1
330
1F
100
AcDbEntity
  8
3
  6
Continuous
100
AcDbLine
 10
356.9490823099283
 20
307.1727050584255
 30
0.0
 11
356.9490823099283
 21
307.1682750993667
 31
0.0
  0
LWPOLYLINE
  5
FC3
330
1F
100
AcDbEntity
  8
3
  6
Continuous
100
AcDbPolyline
 90
       10
 70
   128
 43
0.0
 10
357.0040823099283
 20
306.9847117012458
 10
357.000791250884
 20
306.9850771896254
 10
356.9983814203324
 20
306.9858389035176
 10
356.9961323587258
 20
306.9869917061248
 10
356.994110505473
 20
306.9885082292551
 10
356.9923698221216
 20
306.9903405951543
 10
356.9909639819934
 20
306.9924409285734
 10
356.9899280132662
 20
306.9947462318822
 10
356.9892967342952
 20
306.9971934849241
 10
356.9890823099283
 20
306.9997117012458
  0
LINE
  5
FC5
330
1F
100
AcDbEntity
  8
3
  6
Continuous
100
AcDbLine
 10
357.0060823099283
 20
306.9847117012458
 30
0.0
 11
357.0040823099283
 21
306.9847117012458
 31
0.0
  0
LWPOLYLINE
  5
FC7
330
1F
100
AcDbEntity
  8
3
  6
Continuous
100
AcDbPolyline
 90
       10
 70
   128
 43
0.0
 10
356.9890823099283
 20
307.0117117012458
 10
356.9894473230462
 20
307.0150006462074
 10
356.9902089005659
 20
307.0174110998996
 10
356.9913617270805
 20
307.0196607120026
 10
356.9928783940621
 20
307.0216830072374
 10
356.9947110001347
 20
307.0234240260685
 10
356.9968112389598
 20
307.0248298666184
 10
356.9991165009601
 20
307.0258658787667
 10
357.0015638232189
 20
307.0264972319419
 10
357.0040823099283
 20
307.0267117012458
  0
LINE
  5
FC9
330
1F
100
AcDbEntity
  8
3
  6
Continuous
100
AcDbLine
 10
356.9890823099283
 20
306.9997117012458
 30
0.0
 11
356.9890823099283
 21
307.0117117012458
 31
0.0
  0
LINE
  5
FCB
330
1F
100
AcDbEntity
  8
3
  6
Continuous
100
AcDbLine
 10
357.0040823099283
 20
307.0267117012458
 30
0.0
 11
357.0060823099283
 21
307.0267117012458
 31
0.0
  0
LINE
  5
FCC
330
1F
100
AcDbEntity
  8
3
100
AcDbLine
 10
356.5453166295723
 20
307.0778128630344
 30
0.0
 11
356.5575103859743
 21
307.0786892125885
 31
0.0
  0
LINE
  5
FD0
330
1F
100
AcDbEntity
  8
3
100
AcDbLine
 10
356.250777821875
 20
307.0786892125885
 30
0.0
 11
356.2629715782771
 21
307.0778128630344
 31
0.0
  0
LINE
  5
FD7
330
1F
100
AcDbEntity
  8
3
100
AcDbLine
 10
356.2723443473519
 20
307.1213450993462
 30
0.0
 11
356.5359456255044
 21
307.1213334393569
 31
0.0
  0
ENDSEC
  0
SECTION
  2
OBJECTS
  0
DICTIONARY
  5
C
330
0
100
AcDbDictionary
281
     1
  3
ACAD_COLOR
350
FE2
  3
ACAD_GROUP
350
D
  3
ACAD_LAYOUT
350
1A
  3
ACAD_MATERIAL
350
FE1
  3
ACAD_MLINESTYLE
350
17
  3
ACAD_PLOTSETTINGS
350
19
  3
ACAD_PLOTSTYLENAME
350
E
  3
ACAD_TABLESTYLE
350
FE3
  3
ACDBHEADERROUNDTRIPXREC
350
FEE
  3
AcDbVariableDictionary
350
FD9
  3
ASE_INDEX_DICTIONARY
350
FE8
  0
DICTIONARY
  5
FE2
102
{ACAD_REACTORS
330
C
102
}
330
C
100
AcDbDictionary
281
     1
  0
DICTIONARY
  5
D
102
{ACAD_REACTORS
330
C
102
}
330
C
100
AcDbDictionary
281
     1
  0
DICTIONARY
  5
1A
102
{ACAD_REACTORS
330
C
102
}
330
C
100
AcDbDictionary
281
     1
  3
Layout1
350
1E
  3
Layout2
350
26
  3
Model
350
22
  0
DICTIONARY
  5
FE1
102
{ACAD_REACTORS
330
C
102
}
330
C
100
AcDbDictionary
281
     1
  0
DICTIONARY
  5
17
102
{ACAD_REACTORS
330
C
102
}
330
C
100
AcDbDictionary
281
     1
  3
Standard
350
18
  0
DICTIONARY
  5
19
102
{ACAD_REACTORS
330
C
102
}
330
C
100
AcDbDictionary
281
     1
  0
ACDBDICTIONARYWDFLT
  5
E
102
{ACAD_REACTORS
330
C
102
}
330
C
100
AcDbDictionary
281
     1
  3
Normal
350
F
100
AcDbDictionaryWithDefault
340
F
  0
DICTIONARY
  5
FE3
102
{ACAD_REACTORS
330
C
102
}
330
C
100
AcDbDictionary
281
     1
  3
Standard
350
FE4
  0
DICTIONARY
  5
FEE
102
{ACAD_REACTORS
330
C
102
}
330
C
100
AcDbDictionary
281
     1
  0
DICTIONARY
  5
FD9
102
{ACAD_REACTORS
330
C
102
}
330
C
100
AcDbDictionary
281
     1
  3
CTABLESTYLE
350
FEB
  3
DIMASSOC
350
FDB
  3
HIDETEXT
350
FDA
  3
PROJECTNAME
350
FEC
  0
DICTIONARY
  5
FE8
102
{ACAD_REACTORS
330
C
102
}
330
C
100
AcDbDictionary
281
     1
  3
ASEBlockHierarchyIndexRecord
350
FEA
1001
DCO15
1040
1563195126.984
  0
LAYOUT
  5
1E
102
{ACAD_XDICTIONARY
360
FEF
102
}
102
{ACAD_REACTORS
330
1A
102
}
330
1A
100
AcDbPlotSettings
  1

  2
PLOTER 500
  4

  6

 40
0.0
 41
0.0
 42
0.0
 43
0.0
 44
0.0
 45
0.0
 46
0.0
 47
0.0
 48
0.0
 49
0.0
140
0.0
141
0.0
142
1.0
143
1.0
 70
   688
 72
     0
 73
     0
 74
     5
  7

 75
    16
147
1.0
148
0.0
149
0.0
100
AcDbLayout
  1
Layout1
 70
     1
 71
     1
 10
0.0
 20
0.0
 11
420.0
 21
297.0
 12
0.0
 22
0.0
 32
0.0
 14
1.000000000000000E+20
 24
1.000000000000000E+20
 34
1.000000000000000E+20
 15
-1.000000000000000E+20
 25
-1.000000000000000E+20
 35
-1.000000000000000E+20
146
0.0
 13
0.0
 23
0.0
 33
0.0
 16
1.0
 26
0.0
 36
0.0
 17
0.0
 27
1.0
 37
0.0
 76
     0
330
1B
  0
LAYOUT
  5
26
102
{ACAD_XDICTIONARY
360
FF3
102
}
102
{ACAD_REACTORS
330
1A
102
}
330
1A
100
AcDbPlotSettings
  1

  2
PLOTER 500
  4

  6

 40
0.0
 41
0.0
 42
0.0
 43
0.0
 44
0.0
 45
0.0
 46
0.0
 47
0.0
 48
0.0
 49
0.0
140
0.0
141
0.0
142
1.0
143
1.0
 70
   688
 72
     0
 73
     0
 74
     5
  7

 75
    16
147
1.0
148
0.0
149
0.0
100
AcDbLayout
  1
Layout2
 70
     1
 71
     2
 10
0.0
 20
0.0
 11
12.0
 21
9.0
 12
0.0
 22
0.0
 32
0.0
 14
0.0
 24
0.0
 34
0.0
 15
0.0
 25
0.0
 35
0.0
146
0.0
 13
0.0
 23
0.0
 33
0.0
 16
1.0
 26
0.0
 36
0.0
 17
0.0
 27
1.0
 37
0.0
 76
     0
330
23
  0
LAYOUT
  5
22
102
{ACAD_XDICTIONARY
360
FF1
102
}
102
{ACAD_REACTORS
330
1A
102
}
330
1A
100
AcDbPlotSettings
  1

  2
PLOTER 500
  4

  6

 40
0.0
 41
0.0
 42
0.0
 43
0.0
 44
0.0
 45
0.0
 46
0.0
 47
0.0
 48
0.0
 49
0.0
140
0.0
141
0.0
142
1.0
143
1.0
 70
  1712
 72
     0
 73
     0
 74
     0
  7

 75
     0
147
1.0
148
0.0
149
0.0
100
AcDbLayout
  1
Model
 70
     1
 71
     0
 10
0.0
 20
0.0
 11
12.0
 21
9.0
 12
0.0
 22
0.0
 32
0.0
 14
0.0
 24
0.0
 34
0.0
 15
0.0
 25
0.0
 35
0.0
146
0.0
 13
0.0
 23
0.0
 33
0.0
 16
1.0
 26
0.0
 36
0.0
 17
0.0
 27
1.0
 37
0.0
 76
     0
330
1F
  0
MLINESTYLE
  5
18
102
{ACAD_REACTORS
330
17
102
}
330
17
100
AcDbMlineStyle
  2
STANDARD
 70
     0
  3

 62
   256
 51
90.0
 52
90.0
 71
     2
 49
0.5
 62
   256
  6
BYLAYER
 49
-0.5
 62
   256
  6
BYLAYER
  0
ACDBPLACEHOLDER
  5
F
102
{ACAD_REACTORS
330
E
102
}
330
E
  0
TABLESTYLE
  5
FE4
102
{ACAD_REACTORS
330
FE3
102
}
330
FE3
100
AcDbTableStyle
  3
Standard
 70
     0
 71
     0
 40
1.5
 41
1.5
280
     0
281
     0
  7
Standard
140
4.5
170
     2
 62
     0
 63
     7
283
     0
274
    -2
284
     1
 64
     0
275
    -2
285
     1
 65
     0
276
    -2
286
     1
 66
     0
277
    -2
287
     1
 67
     0
278
    -2
288
     1
 68
     0
279
    -2
289
     1
 69
     0
  7
Standard
140
6.0
170
     5
 62
     0
 63
     7
283
     0
274
    -2
284
     1
 64
     0
275
    -2
285
     1
 65
     0
276
    -2
286
     1
 66
     0
277
    -2
287
     1
 67
     0
278
    -2
288
     1
 68
     0
279
    -2
289
     1
 69
     0
  7
Standard
140
4.5
170
     5
 62
     0
 63
     7
283
     0
274
    -2
284
     1
 64
     0
275
    -2
285
     1
 65
     0
276
    -2
286
     1
 66
     0
277
    -2
287
     1
 67
     0
278
    -2
288
     1
 68
     0
279
    -2
289
     1
 69
     0
  0
DICTIONARYVAR
  5
FEB
102
{ACAD_REACTORS
330
FD9
102
}
330
FD9
100
DictionaryVariables
280
     0
  1
STANDARD
  0
DICTIONARYVAR
  5
FDB
102
{ACAD_REACTORS
330
FD9
102
}
330
FD9
100
DictionaryVariables
280
     0
  1
2
  0
DICTIONARYVAR
  5
FDA
102
{ACAD_REACTORS
330
FD9
102
}
330
FD9
100
DictionaryVariables
280
     0
  1
1
  0
DICTIONARYVAR
  5
FEC
102
{ACAD_REACTORS
330
FD9
102
}
330
FD9
100
DictionaryVariables
280
     0
  1

  0
XRECORD
  5
FEA
102
{ACAD_REACTORS
330
FE8
102
}
330
FE8
100
AcDbXrecord
280
     1
  0
DICTIONARY
  5
FEF
330
1E
100
AcDbDictionary
280
     1
281
     1
  3
ACAD_XREC_ROUNDTRIP
360
FF0
  0
DICTIONARY
  5
FF3
330
26
100
AcDbDictionary
280
     1
281
     1
  3
ACAD_XREC_ROUNDTRIP
360
FF4
  0
DICTIONARY
  5
FF1
330
22
100
AcDbDictionary
280
     1
281
     1
  3
ACAD_XREC_ROUNDTRIP
360
FF2
  0
XRECORD
  5
FF0
102
{ACAD_REACTORS
330
FEF
102
}
330
FEF
100
AcDbXrecord
280
     1
102
SHADEPLOT
 70
     0
102
SHADEPLOTRESLEVEL
 70
     2
102
SHADEPLOTCUSTOMDPI
 70
   300
  0
XRECORD
  5
FF4
102
{ACAD_REACTORS
330
FF3
102
}
330
FF3
100
AcDbXrecord
280
     1
102
SHADEPLOT
 70
     0
102
SHADEPLOTRESLEVEL
 70
     2
102
SHADEPLOTCUSTOMDPI
 70
   300
  0
XRECORD
  5
FF2
102
{ACAD_REACTORS
330
FF1
102
}
330
FF1
100
AcDbXrecord
280
     1
102
SHADEPLOT
 70
     0
102
SHADEPLOTRESLEVEL
 70
     2
102
SHADEPLOTCUSTOMDPI
 70
   300
  0
ENDSEC
  0
EOF
